Sound will begin in 5 seconds

alleyway

Chords
01234567891011121314151617181920212223
E
B
G
D
A
E
B
0 1 2 3 4 5 6 7 8 9 10 11 12 13 14 15 16 17 18 19 20 21 22 23
Song Science #1: How Pros Use 6 Chords to Write Hit Songs
(/) Slide Up  (\) Slide Down  (h) Hammer On  (p) Pull Off  (b) Bend (r) Release (v) Vibrato

(W|WW) Whole (H|HH) Half (Q|QQ) Quarter (E|EE) 8th (S|SS) 16th (T|TT) 32nd (X|XX) 64th

Stave 1:
t: Q Q S S S S Q Q S S S S E E E E E E E E E E E E E E E E
E|--------------------------------------------------------------------------------------
B|--------------------------------------5--5--5--5--5--5--5--5--3--3--3--3--3--3--3--3--
G|--------------------------------------5--5--5--5--5--5--5--5--3--3--3--3--3--3--3--3--
D|--3--3--3--3--3--3--5--5--5--5--5--5--5--5--5--5--5--5--5--5--3--3--3--3--3--3--3--3--
A|--3--3--3--3--3--3--5--5--5--5--5--5--------------------------------------------------
E|--3--3--3--3--3--3--5--5--5--5--5--5--------------------------------------------------

Stave 2:
t: E E E E E E E E
E|--------------------------
B|--2--2--2--2--2--2--2--2--
G|--2--2--2--2--2--2--2--2--
D|--2--2--2--2--2--2--2--2--
A|--------------------------
E|--------------------------

Stave 3:
t: E E E E E E E E
E|--------------------------
B|--2--2--2--2--2--2--2--2--
G|--2--2--2--2--2--2--2--2--
D|--------------------------
A|--------------------------
E|--------------------------

Stave 4:
t: H E W H E W H E W W
E|-------------------------------
B|--------------------4--4--4----
G|--2--2--2--4--4--4--4--4--4----
D|--2--2--2--4--4--4-----------9\
A|-----------------------------9-
E|-----------------------------9-

Stave 5:
t: H E H E E E H E H E E E H E H E E E Q E Q E E E
E|--------------------------------------------------------------------------
B|--------------------------------------------------------------------------
G|--9--9--9--9--9--9--7--7--7--7--7--7--5--5--5--5--5--5--3--3--5--5--5--5--
D|--9--9--9--9--9--9--7--7--7--7--7--7--5--5--5--5--5--5--3--3--5--5--5--5--
A|--------------------------------------------------------------------------
E|--------------------------------------------------------------------------

Stave 6:
t: H E H E E E H E H E E E H E H E E E Q E Q E E E
E|--------------------------------------------------------------------------
B|--------------------------------------------------------------------------
G|--9--9--9--9--9--9--7--7--7--7--7--7--5--5--5--5--5--5--1--1--3--3--3--3--
D|--9--9--9--9--9--9--7--7--7--7--7--7--5--5--5--5--5--5--1--1--3--3--3--3--
A|--------------------------------------------------------------------------
E|--------------------------------------------------------------------------

Stave 7:
t: Q E E E E E E Q E E E E E E Q E E E E E E E E E E E E E E
E|-----------------------------------------------------------------------------------------
B|-----------------------------------------------------------------------------------------
G|--5--5--5--5--5--5--5--4--4--4--4--4--4--4--3--3--3--3--3--3--3--1--1--1--1--2--2--2--2--
D|--5--5--5--5--5--5--5--4--4--4--4--4--4--4--3--3--3--3--3--3--3--1--1--1--1--2--2--2--2--
A|-----------------------------------------------------------------------------------------
E|-----------------------------------------------------------------------------------------

Stave 8:
t: E E E E E E E E E E E E E E E E E E EE EE EE EE EE EE
E|--------------------------------------------------------------------------------
B|--------------------------------------------------------------------------------
G|--5--5--5--5--5--5--7--7--7--7--7--7--9--9--9--9--9--9--11--11--11--11--11--11--
D|--5--5--5--5--5--5--7--7--7--7--7--7--9--9--9--9--9--9--11--11--11--11--11--11--
A|--------------------------------------------------------------------------------
E|--------------------------------------------------------------------------------

Stave 9:
t: QQ QQ Q E E E E E E QQ QQ Q E E E E E E QQ QQ H E H E E E
E|--------------------------------------------------------------------------------------
B|--------------------------------------------------------------------------------------
G|--11--10--9--9--9--9--9--9--9--11--10--9--9--9--9--9--9--9--11--10--9--9--9--9--9--9--
D|--11--10--9--9--9--9--9--9--9--11--10--9--9--9--9--9--9--9--11--10--9--9--9--9--9--9--
A|--------------------------------------------------------------------------------------
E|--------------------------------------------------------------------------------------

Stave 10:
t: H E H E E E H E H E E E
E|--------------------------------------
B|--------------------------------------
G|--7--7--7--7--7--7--5--5--5--5--5--5--
D|--7--7--7--7--7--7--5--5--5--5--5--5--
A|--------------------------------------
E|--------------------------------------

http://www.guitartabcreator.com
Guitar Tab Creator is intended to store guitar tab created through the tool. It currently does not support in-line text editing. Any text you place in here will be lost. If you need to comment on your tab, please use the "Tab Notes" section located below.