Sound will begin in 5 seconds

Tradition Cam Guitar

Chords
01234567891011121314151617181920212223
E
B
G
D
A
E
B
0 1 2 3 4 5 6 7 8 9 10 11 12 13 14 15 16 17 18 19 20 21 22 23
Song Science #1: How Pros Use 6 Chords to Write Hit Songs
(/) Slide Up  (\) Slide Down  (h) Hammer On  (p) Pull Off  (b) Bend (r) Release (v) Vibrato

Stave 1:

E|--0--4--5--4--0--4--5--4--0--0--0--4--5--4--0--7--5--4--0--0--
B|--0--0--0--0--0--0--0--0--0--5--0--0--0--0--0--0--0--0--0--5--
G|--6--6--6--6--6--6--6--6--6--6--6--6--6--6--6--6--6--6--6--6--
D|--7--7--7--7--7--7--7--7--7--7--7--7--7--7--7--7--7--7--7--7--
A|--0--0--0--0--0--0--0--0--0--0--0--0--0--0--0--0--0--0--0--0--
E|--------------------------------------------------------------

Stave 2:

E|-----4--5--4-----------4--5--4-----------4--5--4-----------7--5--4--------
B|--------------5-----------------5-----------------5-----------------5-----
G|-----------------------------------6-----------------------------------6--
D|--7--------------7--7-----------------7--------------7--7-----------------
A|--------------------------------------------------------------------------
E|--------------------------------------------------------------------------

Stave 3:

E|--9---7--9---7-----------------------------------------
B|--10--9--10--9--------2--3--5--2--3--5--2--3--5--2-----
G|--11--9--11--9-----2--------------------------------4--
D|-------------------------------------------------------
A|-------------------------------------------------------
E|-------------------------------------------------------

Stave 4:

E|----------------------------
B|----------------------------
G|-----7/9--11/13--11--9------
D|--7---------------------11--
A|----------------------------
E|----------------------------

Stave 5:

E|--0--0--0--
B|--2--3--5--
G|--2--4--6--
D|--2--4--6--
A|--0--0--0--
E|-----------

http://www.guitartabcreator.com
Guitar Tab Creator is intended to store guitar tab created through the tool. It currently does not support in-line text editing. Any text you place in here will be lost. If you need to comment on your tab, please use the "Tab Notes" section located below.