Sound will begin in 5 seconds

Surprise guitar

Chords
01234567891011121314151617181920212223
E
B
G
D
A
E
B
0 1 2 3 4 5 6 7 8 9 10 11 12 13 14 15 16 17 18 19 20 21 22 23
Song Science #1: How Pros Use 6 Chords to Write Hit Songs
(/) Slide Up  (\) Slide Down  (h) Hammer On  (p) Pull Off  (b) Bend (r) Release (v) Vibrato

Stave 1:

E|-------------------------------------------------------------
B|-------------------------------------------------------------
G|--9--9--9--9--9--9--9--9--9--9--4--4--4--4--5--5--5--5--5\2--
D|-------------------------------------------------------------
A|-------------------------------------------------------------
E|-------------------------------------------------------------

Stave 2:

E|--7-----3--0--------3--0--------3--0--------3--0--------------
B|--5-----------1-----------1-----------1-----------1-----------
G|--5--------------2-----------2-----------0-----------0--1-----
D|--7-----------------------------------------------------------
A|--0-----------------------------------------------------------
E|--------------------------------------------------------------

Stave 3:

E|--------------------------------------------------12----------12--------------
B|------------------------------------------------------13----------13----------
G|----------------------------------------------------------14----------12--14--
D|------------------------------------------------------------------------------
A|--------5--------7--7--8--7--------7--8--7------------------------------------
E|--5--8-----5--8--------------8--5-----------8--5------------------------------

Stave 4:

E|-------------------------------------------------------------------
B|-------------------------------------------------------------------
G|-------------------------------------------------------------------
D|---------------------------9--10--9-------------10--12--10--9------
A|--------7--8--7-----7--10------------10--7--10-----------------10--
E|--5--8-----------8-------------------------------------------------

http://www.guitartabcreator.com
Guitar Tab Creator is intended to store guitar tab created through the tool. It currently does not support in-line text editing. Any text you place in here will be lost. If you need to comment on your tab, please use the "Tab Notes" section located below.