Sound will begin in 5 seconds

nether guitar

Chords
01234567891011121314151617181920212223
E
B
G
D
A
E
B
0 1 2 3 4 5 6 7 8 9 10 11 12 13 14 15 16 17 18 19 20 21 22 23
Song Science #1: How Pros Use 6 Chords to Write Hit Songs
(/) Slide Up  (\) Slide Down  (h) Hammer On  (p) Pull Off  (b) Bend (r) Release (v) Vibrato

Stave 1:

E|--5-----0-----------------------------------------------
B|--5-----0-----------------------------------------------
G|--5-----0-----2--5--7/9--9b---0--5--7/9--9--9--7--7--7--
D|--7-----2-----------------------------------------------
A|--8-----3-----------------------------------------------
E|--------------------------------------------------------

Stave 2:

E|----------------------------------------------------------------------8---------------8---------
B|----------------------------------------------------------------5--6-----3/5\3--5--6-----3/5\3--
G|----------------------------------------5--------------5----------------------------------------
D|----------------------------------5--7-----------5--7-----7-------------------------------------
A|--0--3--5--5/7--7--7--7--5--5--7-----------7--7-------------------------------------------------
E|------------------------------------------------------------------------------------------------

Stave 3:

E|--0-----------------------------------------------------------------------------
B|--0-----------------------------------------------------------------------------
G|--0-----------------------------------------------------------------------------
D|--2-----------------------------------------------5--------5-----5--------------
A|--2-----------3--------3-----3--------------7--7-----7--7-----7-----------5-----
E|--0-----5--5-----5--5-----5-----0--0--3-----------------------------7--7--------

Stave 4:

E|---------------------------------------------------------------------------------------
B|--------------------------8b-----------------------------------------------------------
G|--------5--------5-----5----------------10--9--7------------10--9--7-------------------
D|--7--7-----7--7-----7-----------------------------10--9--7------------10--9--7---------
A|--------------------------------------------------------------------------------10--7--
E|---------------------------------------------------------------------------------------

http://www.guitartabcreator.com
Guitar Tab Creator is intended to store guitar tab created through the tool. It currently does not support in-line text editing. Any text you place in here will be lost. If you need to comment on your tab, please use the "Tab Notes" section located below.