Sound will begin in 5 seconds

Drowning Sinking BASS

01234567891011121314151617181920212223
E
B
G
D
A
E
B
0 1 2 3 4 5 6 7 8 9 10 11 12 13 14 15 16 17 18 19 20 21 22 23
Song Science #1: How Pros Use 6 Chords to Write Hit Songs
(/) Slide Up  (\) Slide Down  (h) Hammer On  (p) Pull Off  (b) Bend (r) Release (v) Vibrato

Stave 1:

E|--------------------------------------------------
B|--------------------------------------------------
G|--------------------------------------------------
D|--------------------------------------------------
A|--3--3--3-----3--3--3-----3--3--3-----3--3--3-----
E|-----------4-----------4-----------4-----------4--

Stave 2:

E|--------------------------------------------------------------------------------------------------
B|--------------------------------------------------------------------------------------------------
G|--------------------------------------------------------------------3--------------3--------------
D|-----------------------3-----------------3-----------------------------------------------3--3--3--
A|--3--3--3--------------------------------------3--3--3--4--4--4--4-----4--4--4--4-----4-----------
E|-----------4--4--4--4-----4--4--4--4--4-----4-----------------------------------------------------

Stave 3:

E|------------------------------------------------------------------------------------
B|------------------------------------------------------------------------------------
G|---------------------------------------------------------8----------------8--8------
D|--------6--------------6--6------------8------10-----10-----10--------10--------10--
A|-----8-----8--------8--------8-----10-----10------8-------------8--8----------------
E|--6-----------6--6--------------8---------------------------------------------------

Stave 4:

E|--------------------------------------------------
B|--------------------------------------------------
G|--------8--------------8--8-----------------------
D|-----9-----9--------9--------9--------------------
A|--7-----------7--7--------------------4--4--------
E|--------------------------------------------------

Stave 5:

E|---------------------------------------------------------------
B|---------------------------------------------------------------
G|------------------------------------------------8--------8-----
D|-----------13--------------13--13------------------------------
A|-----8/11------11--11--11----------11--------6--------6--------
E|--4------------------------------------------------8--------8--

Stave 6:

E|-----------------------------------------------------------------
B|-----------------------------------------------------------------
G|-----8--------8--------8-----------8--------8--------8-----------
D|-----------------------------------------------------------------
A|--6--------6--------6-----------6--------6--------6--------7-----
E|--------8--------8--------8--6--------8--------8--------8--------

Stave 7:

E|--------------------------------------------------------------------------------------
B|--------------------------------------------------------------------------------------
G|--------------------------------------------------------------------------------------
D|--------------------------------------------------------------------------------------
A|--------------------------------------------------------------------------------------
E|--8--7--6--6--6--6--6--6--8--8--8--8--8--7--6-----------9--9--8--8--6--9--9--8--8--6--

http://www.guitartabcreator.com
Guitar Tab Creator is intended to store guitar tab created through the tool. It currently does not support in-line text editing. Any text you place in here will be lost. If you need to comment on your tab, please use the "Tab Notes" section located below.