Sound will begin in 5 seconds

Drowning Sinking ANDY

Chords
01234567891011121314151617181920212223
E
B
G
D
A
E
B
0 1 2 3 4 5 6 7 8 9 10 11 12 13 14 15 16 17 18 19 20 21 22 23
Song Science #1: How Pros Use 6 Chords to Write Hit Songs
(/) Slide Up  (\) Slide Down  (h) Hammer On  (p) Pull Off  (b) Bend (r) Release (v) Vibrato

Stave 1:

E|--------------6--6--6--6/8--------4-----9--8--6-------------------------------
B|----------------------------4--6-----------------9--6--4--------4--------6/8--
G|--5--5--5-------------------------------------------------5--6-----5--6-------
D|-----------6------------------------------------------------------------------
A|------------------------------------------------------------------------------
E|------------------------------------------------------------------------------

Stave 2:

E|--13--15--13-----6----------------------------------------------15--10--11--
B|--14--16--13-----6----------------------------------------------16--12--13--
G|--13--15--13-----6--------13--15/17\15--13--15/17\15--13\10-----15--12--13--
D|--15--17--13-----4----------------------------------------------17----------
A|--13--15--15----------------------------------------------------15----------
E|----------13----------------------------------------------------------------

Stave 3:

E|--15--15----------------15--13--13--13--13-----15--13--13--13--11--
B|--16--16--16--16--------16--14--14--13--14-----16--14--14--13--12--
G|--17--17--17--17--------17--15--15--13--13-----17--15--15--13--13--
D|--15--15--18--18--------15--13--13--13--15-----15--13--13--13--14--
A|----------------------------------------13-------------------------
E|-------------------------------------------------------------------

Stave 4:

E|--------------------------------------------------------------------------------------
B|--------------------------------------------------------------------------------------
G|--------------------------------------------------------------------------------------
D|----------------------------6/8--8--8-----6/8--8--8--8--10--11--8--10--6--8--------6--
A|--------------6/8--8--8--8---------------------------------------------------6--8-----
E|--6--8--6--8--------------------------------------------------------------------------

Stave 5:

E|--9---8---6--
B|--9---8---6--
G|--10--8---6--
D|--11--8---6--
A|--11--10--8--
E|--9---8---6--

http://www.guitartabcreator.com
Guitar Tab Creator is intended to store guitar tab created through the tool. It currently does not support in-line text editing. Any text you place in here will be lost. If you need to comment on your tab, please use the "Tab Notes" section located below.