Sound will begin in 5 seconds

The Backstab guitar

Chords
01234567891011121314151617181920212223
E
B
G
D
A
E
B
0 1 2 3 4 5 6 7 8 9 10 11 12 13 14 15 16 17 18 19 20 21 22 23
Song Science #1: How Pros Use 6 Chords to Write Hit Songs
(/) Slide Up  (\) Slide Down  (h) Hammer On  (p) Pull Off  (b) Bend (r) Release (v) Vibrato

Stave 1:

E|--------------------------------------------------------------------------------
B|--------------------------------------------------------------------------------
G|--------------------------------------------------------------------------------
D|--------------------------------------------------------------------------------
A|-----------5--6--------------5--6--5--------------5--6--------------7--6--5-----
E|--4--7--4--------4--4--7--4-----------7--4--7--4--------5--5--8--5-----------8--

Stave 2:

E|--------------------------------------------------
B|--------------------------------------------------
G|--------------------------------------------------
D|-----------6-----------------------5--------------
A|--------6-----7--6--------------5-----6--5--------
E|--4--7--------------7--4--3--6--------------6--3--

Stave 3:

E|--------4--------4--------7--7--7--7--4-----14--4--3--2--
B|-----5--------5--------5-----------------5--14--5--4--3--
G|--6--------6--------6-----------------------14--6--5--4--
D|---------------------------------------------------------
A|---------------------------------------------------------
E|---------------------------------------------------------

Stave 4:

E|--11--12-------------9--12--7/9----------------------------9--12--7/9-----------------
B|--12--13---------10--------------10--9--12-------------10--------------10--9--12--10--
G|--13--14--9--11-----------------------------11--9--11---------------------------------
D|--------------------------------------------------------------------------------------
A|--------------------------------------------------------------------------------------
E|--------------------------------------------------------------------------------------

Stave 5:

E|--7--9--7--14--
B|--7--9--7--14--
G|--7--9--7--14--
D|---------------
A|---------------
E|---------------

http://www.guitartabcreator.com
Guitar Tab Creator is intended to store guitar tab created through the tool. It currently does not support in-line text editing. Any text you place in here will be lost. If you need to comment on your tab, please use the "Tab Notes" section located below.