Sound will begin in 5 seconds

Easy: The solo

01234567891011121314151617181920212223
E
B
G
D
A
E
B
0 1 2 3 4 5 6 7 8 9 10 11 12 13 14 15 16 17 18 19 20 21 22 23
Song Science #1: How Pros Use 6 Chords to Write Hit Songs
(/) Slide Up  (\) Slide Down  (h) Hammer On  (p) Pull Off  (b) Bend (r) Release (v) Vibrato

Stave 1:

E|-------------------------------------------------------------------------------------------------
B|------------------------------------------------16b18--------------------------------------------
G|-------------13/21-------------------------------------15b16--13---------------------------------
D|------------------------------------------------------------------16--13-------------------------
A|--13b14--11---------13b14--11--11\6--13b14--11----------------------------16--14--16b17--14------
E|---------------------------------------------------------------------------------------------16--

Stave 2:

E|---------------------------------------------------------------------------------------------------
B|------------------------------------------------16b18--16--16b18---------16------------------------
G|-------------13/21------------------------------------------------15b16------15b16--16r15--13------
D|-----------------------------------------------------------------------------------------------15--
A|--13b14--11---------13b14--11--11\6--13b14--11-----------------------------------------------------
E|---------------------------------------------------------------------------------------------------

http://www.guitartabcreator.com
Guitar Tab Creator is intended to store guitar tab created through the tool. It currently does not support in-line text editing. Any text you place in here will be lost. If you need to comment on your tab, please use the "Tab Notes" section located below.