KLAATU SUUNS - YOURS TRULY

01234567891011121314151617181920212223
E
B
G
D
A
E
B
0 1 2 3 4 5 6 7 8 9 10 11 12 13 14 15 16 17 18 19 20 21 22 23
(/) Slide Up  (\) Slide Down  (h) Hammer On  (p) Pull Off  (b) Bend (r) Release (v) Vibrato

Stave 1:

E|-----7--------7--------7--------7--------7--------7--------7--------7--------------
B|--7--5-----7--5-----7--5-----7--5-----7--5-----7--5-----7--5-----7--5-----------9--
G|--7--6-----7--6-----7--6-----7--6-----7--6-----7--6-----7--6-----7--6-----------8--
D|-----7--------7--------7--------7--------7--------7--------7--------7-----------9--
A|--7--------7--------7--------7--------7--------7--------7--------7--------------7--
E|-----------------------------------------------------------------------------------

Stave 2:

E|--------------------------------------------------------------------------------
B|--8-----7-----0-----------------------------------------------------9-----------
G|--7-----7-----6-----------------------------------------------------8-----------
D|--------------7-----------------------------------------------------9-----------
A|--7-----7-----7-----------------------------------------------------7-----------
E|--------------------3--5--3--2--0-----------------------------------------------

Stave 3:

E|-------------------------------------------------------------------------
B|--15-----12-----8-----7-----------------------------------------------9--
G|--14-----11-----7-----7-----------------------------------------------8--
D|----------------------------------------------------------------------9--
A|--14-----12-----7-----7-----------------------------------------------7--
E|-------------------------------------------------------------------------

Stave 4:

E|--------------------------------------------------------------------------
B|--8-----7-----0-----------------------------------------------------9-----
G|--7-----7-----6-----------------------------------------------------8-----
D|--------------7-----------------------------------------------------9-----
A|--7-----7-----7-----------------------------------------------------7-----
E|--------------------3--5--3--2--0-----------------------------------------

Stave 5:

E|-----
B|--9--
G|--8--
D|--9--
A|--7--
E|-----

							http://www.guitartabcreator.com
Chords

Instruments
{"strings":[[[".",7,"_",".",7,"_",".",7,"_",".",7,"_",".",7,"_",".",7,"_",".",7,"_",".",7,"_","_","_","."],[7,5,"_",7,5,"_",7,5,"_",7,5,"_",7,5,"_",7,5,"_",7,5,"_",7,5,"_","_","_",9],[7,6,"_",7,6,"_",7,6,"_",7,6,"_",7,6,"_",7,6,"_",7,6,"_",7,6,"_","_","_",8],[".",7,"_",".",7,"_",".",7,"_",".",7,"_",".",7,"_",".",7,"_",".",7,"_",".",7,"_","_","_",9],[7,"_","_",7,"_","_",7,"_","_",7,"_","_",7,"_","_",7,"_","_",7,"_","_",7,"_","_","_","_",7],[".","_","_",".","_","_",".","_","_",".","_","_",".","_","_",".","_","_",".","_","_",".","_","_","_","_","."]],[[".","_",".","_",".","_",".",".",".",".",".","_","_","_","_","_","_","_","_","_","_","_",".","_","_","_"],[8,"_",7,"_",0,"_",".",".",".",".",".","_","_","_","_","_","_","_","_","_","_","_",9,"_","_","_"],[7,"_",7,"_",6,"_",".",".",".",".",".","_","_","_","_","_","_","_","_","_","_","_",8,"_","_","_"],[".","_",".","_",7,"_",".",".",".",".",".","_","_","_","_","_","_","_","_","_","_","_",9,"_","_","_"],[7,"_",7,"_",7,"_",".",".",".",".",".","_","_","_","_","_","_","_","_","_","_","_",7,"_","_","_"],[".","_",".","_",".","_",3,5,3,2,0,"_","_","_","_","_","_","_","_","_","_","_",".","_","_","_"]],[[".","_",".","_",".","_",".","_","_","_","_","_","_","_","_","_","_","_","_","_","_","_","."],[15,"_",12,"_",8,"_",7,"_","_","_","_","_","_","_","_","_","_","_","_","_","_","_",9],[14,"_",11,"_",7,"_",7,"_","_","_","_","_","_","_","_","_","_","_","_","_","_","_",8],[".","_",".","_",".","_",".","_","_","_","_","_","_","_","_","_","_","_","_","_","_","_",9],[14,"_",12,"_",7,"_",7,"_","_","_","_","_","_","_","_","_","_","_","_","_","_","_",7],[".","_",".","_",".","_",".","_","_","_","_","_","_","_","_","_","_","_","_","_","_","_","."]],[[".","_",".","_",".","_",".",".",".",".",".","_","_","_","_","_","_","_","_","_","_","_",".","_"],[8,"_",7,"_",0,"_",".",".",".",".",".","_","_","_","_","_","_","_","_","_","_","_",9,"_"],[7,"_",7,"_",6,"_",".",".",".",".",".","_","_","_","_","_","_","_","_","_","_","_",8,"_"],[".","_",".","_",7,"_",".",".",".",".",".","_","_","_","_","_","_","_","_","_","_","_",9,"_"],[7,"_",7,"_",7,"_",".",".",".",".",".","_","_","_","_","_","_","_","_","_","_","_",7,"_"],[".","_",".","_",".","_",3,5,3,2,0,"_","_","_","_","_","_","_","_","_","_","_",".","_"]],[["."],[9],[8],[9],[7],["."]]],"numberofstrings":6,"notes":["E","B","G","D","A","E","B"],"capo":0,"stringnotes":["E4","B3","G3","D3","A2","E2"],"comments":["Stave 1:","Stave 2:","Stave 3:","Stave 4:","Stave 5:"],"timing":[["W","W","W","W",null,null,null,"W",null,null,null,null,null,null,null,null,null,null,null,null,null,null,null,"W","W","W","W"],["W","W","W","W","W","W","W","W","W","W","W","W","W","W","W","W","W","W","W","W","W","W","W","W","W","W"],["W","W","W","W","W","W","W","W","W","W","W","W","W","W","W","W","W","W","W","W","W","W","W"],[],["W"]],"timingvisible":false,"tabcounter":0,"stave":4,"totalstaves":5,"instrument":"6guitar","selectedtuning":"6_standard","version":"13"}

Member for

1 month 2 weeks
Submitted by CarloPureco on Wed, 2021-08-04 12:11