KLAATU SUUNS PANORAMAS

01234567891011121314151617181920212223
E
B
G
D
A
E
B
0 1 2 3 4 5 6 7 8 9 10 11 12 13 14 15 16 17 18 19 20 21 22 23
(/) Slide Up  (\) Slide Down  (h) Hammer On  (p) Pull Off  (b) Bend (r) Release (v) Vibrato

Stave 1:

E|----------------------
B|--8--10-----12-----7--
G|--9--10-----12-----6--
D|--9--10-----12-----7--
A|--7--8------10-----5--
E|----------------------

Stave 2:

E|-----------------------
B|--10-------------------
G|--9--------------------
D|--10--7--9--5-----5h7--
A|--8------------7-------
E|-----------------------

Stave 3:

E|----------------------
B|--8--10-----12-----7--
G|--9--10-----12-----6--
D|--9--10-----12-----7--
A|--7--8------10-----5--
E|----------------------

Stave 4:

E|-----------------------
B|--10-------------------
G|--9--------------------
D|--10--7--9--5-----5h7--
A|--8------------7-------
E|-----------------------

Stave 5:

E|--17-----19-----15--
B|--17-----17-----13--
G|--14-----17-----14--
D|--------------------
A|--------------------
E|--------------------

Stave 6:

E|-----15--17--12--10--8---------------------7-----------------
B|------------------------------8-----10--------8-----8h10-----
G|---------------------------9-----9------9--------9-----------
D|-------------------------------------------------------------
A|-------------------------------------------------------------
E|-------------------------------------------------------------

Stave 7:

E|------------------10--8----------------------------7-----------------------------
B|-----8-----10------------10--------8-----10-----------8-----8h10-----------------
G|--9-----9------9----------------9-----9------9--9--------9--------9--7-----------
D|---------------------------------------------------------------------------------
A|---------------------------------------------------------------------------------
E|---------------------------------------------------------------------------------

Stave 8:

E|------------------------7-----------8-----------10-----------------------------
B|-----8-----10-----8-----------8-----------8------------8-----10-----8----------
G|--9-----9------9-----9-----9-----9-----9-----9------9-----9------9-----9\7--x--
D|-------------------------------------------------------------------------------
A|-------------------------------------------------------------------------------
E|-------------------------------------------------------------------------------

Stave 9:

E|-----------------------------------------------------
B|-----------------------------------------------------
G|-----------------------------------------------------
D|--5--7--9--7--5--7--5--7--5--------------------------
A|-----------------------------7--9--7-----7--9--7--5--
E|-----------------------------------------------------

Stave 10:

E|---------------12-------------12-------------------------------------------------------------
B|--8-----10-------------10-------------12--13--------------------------8-----10-----12-----7--
G|--9-----10---------12-------------12----------------------------------9-----10-----12-----6--
D|--9-----10------------------------------------------------------------9-----10-----12-----7--
A|--7-----8-------------------------------------------------------------7-----8------10-----5--
E|---------------------------------------------------------------------------------------------

							http://www.guitartabcreator.com
Chords

Instruments
{"strings":[[[".",".","_",".","_","."],[8,10,"_",12,"_",7],[9,10,"_",12,"_",6],[9,10,"_",12,"_",7],[7,8,"_",10,"_",5],[".",".","_",".","_","."]],[[".",".",".",".",".",".",".","."],[10,".",".",".",".",".",".","."],[9,".",".",".",".",".",".","."],[10,7,9,5,".",5,"h",7],[8,".",".",".",7,".",".","."],[".",".",".",".",".",".",".","."]],[[".",".","_",".","_","."],[8,10,"_",12,"_",7],[9,10,"_",12,"_",6],[9,10,"_",12,"_",7],[7,8,"_",10,"_",5],[".",".","_",".","_","."]],[[".",".",".",".",".",".",".","."],[10,".",".",".",".",".",".","."],[9,".",".",".",".",".",".","."],[10,7,9,5,".",5,"h",7],[8,".",".",".",7,".",".","."],[".",".",".",".",".",".",".","."]],[[17,"_",19,"_",15],[17,"_",17,"_",13],[14,"_",17,"_",14],[".","_",".","_","."],[".","_",".","_","."],[".","_",".","_","."]],[["_",15,17,12,10,8,"_",".",".",".",".",".",7,".",".",".",".",".","_"],["_",".",".",".",".",".","_",".",8,".",10,".",".",8,".",8,"h",10,"_"],["_",".",".",".",".",".","_",9,".",9,".",9,".",".",9,".",".",".","_"],["_",".",".",".",".",".","_",".",".",".",".",".",".",".",".",".",".",".","_"],["_",".",".",".",".",".","_",".",".",".",".",".",".",".",".",".",".",".","_"],["_",".",".",".",".",".","_",".",".",".",".",".",".",".",".",".",".",".","_"]],[[".",".",".",".",".",10,8,".","_",".",".",".",".",".",".",7,".",".",".",".",".",".",".","_","_","_"],[".",8,".",10,".",".",".",10,"_",".",8,".",10,".",".",".",8,".",8,"h",10,".",".","_","_","_"],[9,".",9,".",9,".",".",".","_",9,".",9,".",9,9,".",".",9,".",".",".",9,7,"_","_","_"],[".",".",".",".",".",".",".",".","_",".",".",".",".",".",".",".",".",".",".",".",".",".",".","_","_","_"],[".",".",".",".",".",".",".",".","_",".",".",".",".",".",".",".",".",".",".",".",".",".",".","_","_","_"],[".",".",".",".",".",".",".",".","_",".",".",".",".",".",".",".",".",".",".",".",".",".",".","_","_","_"]],[[".",".",".",".",".",".",".",7,".",".",".",8,".",".",".",10,".",".",".",".",".",".",".",".",".","_"],[".",8,".",10,".",8,".",".",".",8,".",".",".",8,".",".",".",8,".",10,".",8,".",".",".","_"],[9,".",9,".",9,".",9,".",9,".",9,".",9,".",9,".",9,".",9,".",9,".",9,"\\",7,"x"],[".",".",".",".",".",".",".",".",".",".",".",".",".",".",".",".",".",".",".",".",".",".",".",".",".","_"],[".",".",".",".",".",".",".",".",".",".",".",".",".",".",".",".",".",".",".",".",".",".",".",".",".","_"],[".",".",".",".",".",".",".",".",".",".",".",".",".",".",".",".",".",".",".",".",".",".",".",".",".","_"]],[[".","_","_","_","_","_","_","_","_","_","_","_","_","_","_","_","_"],[".","_","_","_","_","_","_","_","_","_","_","_","_","_","_","_","_"],[".","_","_","_","_","_","_","_","_","_","_","_","_","_","_","_","_"],[5,7,9,7,5,7,5,7,5,"_","_","_","_","_","_","_","_"],[".","_","_","_","_","_","_","_","_",7,9,7,"_",7,9,7,5],[".","_","_","_","_","_","_","_","_","_","_","_","_","_","_","_","_"]],[[".","_",".","_",12,".",".","_",12,".",".",".","_","_","_","_","_","_","_","_",".","_",".","_",".","_","."],[8,"_",10,"_",".",".",10,"_",".",".",12,13,"_","_","_","_","_","_","_","_",8,"_",10,"_",12,"_",7],[9,"_",10,"_",".",12,".","_",".",12,".",".","_","_","_","_","_","_","_","_",9,"_",10,"_",12,"_",6],[9,"_",10,"_",".",".",".","_",".",".",".",".","_","_","_","_","_","_","_","_",9,"_",10,"_",12,"_",7],[7,"_",8,"_",".",".",".","_",".",".",".",".","_","_","_","_","_","_","_","_",7,"_",8,"_",10,"_",5],[".","_",".","_",".",".",".","_",".",".",".",".","_","_","_","_","_","_","_","_",".","_",".","_",".","_","."]]],"numberofstrings":6,"notes":["E","B","G","D","A","E","B"],"capo":0,"stringnotes":["E4","B3","G3","D3","A2","E2"],"comments":["Stave 1:","Stave 2:","Stave 3:","Stave 4:","Stave 5:","Stave 6:","Stave 7:","Stave 8:","Stave 9:"],"timing":[["W","W","W","W","W","W"],["W","W","W","W","W","W",null,"W"],[],[],["W","W","W","W","W"],["W","W","W","W","W","W","W","W","W","W","W","W","W","W","W","W",null,"W","W","W","W","W","W","W","W","W","W","W","W","W","W","W","W","W","W","W","W","W",null,"W","W","W","W","W","W"],[],["W","W","W","W","W","W","W","W","W","W","W","W","W","W","W","W","W","W","W","W","W","W","W","W","W","W","W","W","W","W",null,null,null,null,null,null,null,null,null,null,null,"W","W"],["W","W","W","W","W","W","W","W","W","W","W","W","W","W","W","W","W","W"]],"timingvisible":false,"tabcounter":27,"stave":9,"totalstaves":10,"instrument":"6guitar","selectedtuning":"6_standard","version":"13"}

Member for

1 month 2 weeks
Submitted by CarloPureco on Wed, 2021-08-04 12:41