KLAATU SUUNS - FRACTURED VIEWS

01234567891011121314151617181920212223
E
B
G
D
A
E
B
0 1 2 3 4 5 6 7 8 9 10 11 12 13 14 15 16 17 18 19 20 21 22 23
(/) Slide Up  (\) Slide Down  (h) Hammer On  (p) Pull Off  (b) Bend (r) Release (v) Vibrato

Stave 1:

E|--5-----3-----12-----5-----3-----12-----
B|--5-----0-----10-----5-----0-----10-----
G|--5-----4-----11-----5-----4-----11-----
D|--7-----5-----12-----7-----5-----12-----
A|----------------------------------------
E|----------------------------------------

Stave 2:

E|--------------------
B|--------------------
G|--------------------
D|--------------------
A|--------------------
E|--0--12--10--12--9--

Stave 3:

E|-----------------------------------
B|-----------------------------------
G|-----9-----7-----7--6--------------
D|--9-----9-----9--------7--9--7--6--
A|-----------------------------------
E|-----------------------------------

Stave 4:

E|------12------12------10------10--10---------10-----------------------7-----7--
B|--12------12------12------12-------------12------12--12\10--10--10\9-----9-----
G|-------------------------------------------------------------------------------
D|-------------------------------------------------------------------------------
A|-------------------------------------------------------------------------------
E|-------------------------------------------------------------------------------

Stave 5:

E|--------------------------------------------------------------------------------------------------------
B|--------------------------------------------------------------------------------------------------------
G|--9--9-----9/11--9-----9-----9--9-----9/11--9-----9-----7--7--6--7--6--7-----6--7--6--7--7--6--7--6--7--
D|--------9-----------9-----9--------9-----------9--------------------------------------------------------
A|--------------------------------------------------------------------------------------------------------
E|--------------------------------------------------------------------------------------------------------

Stave 6:

E|---------------------------------------
B|--5-----7-----10-----12-----10-----10--
G|--4-----8-----9------11-----9------9---
D|--5-----9-----10-----12-----11-----10--
A|--3-----9-----8------10-----9------8---
E|---------------------------------------

							http://www.guitartabcreator.com
Chords

Instruments
{"strings":[[[5,"_",3,"_",12,"_",5,"_",3,"_",12,"_"],[5,"_",0,"_",10,"_",5,"_",0,"_",10,"_"],[5,"_",4,"_",11,"_",5,"_",4,"_",11,"_"],[7,"_",5,"_",12,"_",7,"_",5,"_",12,"_"],[".","_",".","_",".","_",".","_",".","_",".","_"],[".","_",".","_",".","_",".","_",".","_",".","_"]],[[".",".",".",".","."],[".",".",".",".","."],[".",".",".",".","."],[".",".",".",".","."],[".",".",".",".","."],[0,12,10,12,9]],[[".",".",".",".",".",".",".",".",".",".","."],[".",".",".",".",".",".",".",".",".",".","."],[".",9,".",7,".",7,6,".",".",".","."],[9,".",9,".",9,".",".",7,9,7,6],[".",".",".",".",".",".",".",".",".",".","."],[".",".",".",".",".",".",".",".",".",".","."]],[[".",12,".",12,".",10,".",10,10,"_",".",10,".",".",".",".",".",".",".",".",7,".",7],[12,".",12,".",12,".",12,".",".","_",12,".",12,12,"\\",10,10,10,"\\",9,".",9,"."],[".",".",".",".",".",".",".",".",".","_",".",".",".",".",".",".",".",".",".",".",".",".","."],[".",".",".",".",".",".",".",".",".","_",".",".",".",".",".",".",".",".",".",".",".",".","."],[".",".",".",".",".",".",".",".",".","_",".",".",".",".",".",".",".",".",".",".",".",".","."],[".",".",".",".",".",".",".",".",".","_",".",".",".",".",".",".",".",".",".",".",".",".","."]],[[".",".",".",".",".",".",".",".",".",".",".",".",".",".",".",".",".",".",".","_",".",".",".",".",".",".","_",".",".",".",".",".",".",".",".","."],[".",".",".",".",".",".",".",".",".",".",".",".",".",".",".",".",".",".",".","_",".",".",".",".",".",".","_",".",".",".",".",".",".",".",".","."],[9,9,".",9,"/",11,9,".",9,".",9,9,".",9,"/",11,9,".",9,"_",7,7,6,7,6,7,"_",6,7,6,7,7,6,7,6,7],[".",".",9,".",".",".",".",9,".",9,".",".",9,".",".",".",".",9,".","_",".",".",".",".",".",".","_",".",".",".",".",".",".",".",".","."],[".",".",".",".",".",".",".",".",".",".",".",".",".",".",".",".",".",".",".","_",".",".",".",".",".",".","_",".",".",".",".",".",".",".",".","."],[".",".",".",".",".",".",".",".",".",".",".",".",".",".",".",".",".",".",".","_",".",".",".",".",".",".","_",".",".",".",".",".",".",".",".","."]],[[".","_",".","_",".","_",".","_",".","_","."],[5,"_",7,"_",10,"_",12,"_",10,"_",10],[4,"_",8,"_",9,"_",11,"_",9,"_",9],[5,"_",9,"_",10,"_",12,"_",11,"_",10],[3,"_",9,"_",8,"_",10,"_",9,"_",8],[".","_",".","_",".","_",".","_",".","_","."]]],"numberofstrings":6,"notes":["E","B","G","D","A","E","B"],"capo":0,"stringnotes":["E4","B3","G3","D3","A2","E2"],"comments":["Stave 1:","Stave 2:","Stave 3:","Stave 4:","Stave 5:","Stave 6:"],"timing":[[null,null,null,null,null,null,null,null,null,null,null,null],[null,null,null,null,null],[null,null,null,null,null,null,null,null,null,null,null],[null,null,null,null,null,null,null,null,null,null,null,null,null,null,null,null,null,null,null,null,null,null,null],[null,null,null,null,null,null,null,null,null,null,null,null,null,null,null,null,null,null,null,null,null,null,null,null,null,null,null,null,null,null,null,null,null,null,null,null],[null,null,null,null,null,null,null,null,null,null,null]],"timingvisible":false,"tabcounter":10,"stave":5,"totalstaves":6,"instrument":"6guitar","selectedtuning":"6_standard","version":"13"}

Member for

1 month 2 weeks
Submitted by CarloPureco on Wed, 2021-08-04 12:34