KLAATU SUUNS - ANYWAY ANYWHERE

01234567891011121314151617181920212223
E
B
G
D
A
E
B
0 1 2 3 4 5 6 7 8 9 10 11 12 13 14 15 16 17 18 19 20 21 22 23
(/) Slide Up  (\) Slide Down  (h) Hammer On  (p) Pull Off  (b) Bend (r) Release (v) Vibrato

Stave 1:

E|--------------------------------------------------
B|--------------------------------------------------
G|--------------------------------------------------
D|--------------------------------------------------
A|--3--3--3--2--2--5-----------3--3--3--2--2--5-----
E|--------------------2--------------------------2--

Stave 2:

E|--------3----------------
B|--5----------------------
G|-----4-----4--4b5--4--2--
D|-------------------------
A|-------------------------
E|-------------------------

Stave 3:

E|--------------------------------
B|--------------------------------
G|-----------4-----------------7--
D|--7--5--------5--4-----5--4-----
A|--------7-----------5-----------
E|--------------------------------

Stave 4:

E|-----------------------------------------
B|-----------------------------------------
G|-----------4--------------------------7--
D|--7--5--------5--4-----5--4-----5--4-----
A|--------7-----------5--------7-----------
E|-----------------------------------------

Stave 5:

E|--------------------------
B|--------------------------
G|--------------------------
D|--------------------------
A|--3--3-----3--2--2-----5--
E|--------------------3-----

Stave 6:

E|----------------------------------------
B|----------------------------------------
G|--7--5-----4h5--4-----------------------
D|-------------------7-----5--4-----------
A|-------------------------------5--7--5--
E|----------------------------------------

Stave 7:

E|----------------------------
B|----------------------------
G|--7/9--7--5--4--------------
D|----------------7--5--7--5--
A|----------------------------
E|----------------------------

							http://www.guitartabcreator.com
Chords

Instruments
{"strings":[[[".",".",".",".",".",".",".","_","_",".",".",".",".",".",".","."],[".",".",".",".",".",".",".","_","_",".",".",".",".",".",".","."],[".",".",".",".",".",".",".","_","_",".",".",".",".",".",".","."],[".",".",".",".",".",".",".","_","_",".",".",".",".",".",".","."],[3,3,3,2,2,5,".","_","_",3,3,3,2,2,5,"."],[".",".",".",".",".",".",2,"_","_",".",".",".",".",".",".",2]],[[".",".",3,".",".",".",".",".","."],[5,".",".",".",".",".",".",".","."],[".",4,".",4,4,"b",5,4,2],[".",".",".",".",".",".",".",".","."],[".",".",".",".",".",".",".",".","."],[".",".",".",".",".",".",".",".","."]],[[".",".",".",".",".",".",".",".",".","."],[".",".",".",".",".",".",".",".",".","."],[".",".",".",4,".",".",".",".",".",7],[7,5,".",".",5,4,".",5,4,"."],[".",".",7,".",".",".",5,".",".","."],[".",".",".",".",".",".",".",".",".","."]],[[".",".",".",".",".",".",".",".",".",".",".",".","."],[".",".",".",".",".",".",".",".",".",".",".",".","."],[".",".",".",4,".",".",".",".",".",".",".",".",7],[7,5,".",".",5,4,".",5,4,".",5,4,"."],[".",".",7,".",".",".",5,".",".",7,".",".","."],[".",".",".",".",".",".",".",".",".",".",".",".","."]],[[".",".","_",".",".",".",".","."],[".",".","_",".",".",".",".","."],[".",".","_",".",".",".",".","."],[".",".","_",".",".",".",".","."],[3,3,"_",3,2,2,".",5],[".",".","_",".",".",".",3,"."]],[[".",".","_",".",".",".",".",".","_",".",".",".",".","."],[".",".","_",".",".",".",".",".","_",".",".",".",".","."],[7,5,"_",4,"h",5,4,".","_",".",".",".",".","."],[".",".","_",".",".",".",".",7,"_",5,4,".",".","."],[".",".","_",".",".",".",".",".","_",".",".",5,7,5],[".",".","_",".",".",".",".",".","_",".",".",".",".","."]],[[".",".",".",".",".",".",".",".",".","."],[".",".",".",".",".",".",".",".",".","."],[7,"/",9,7,5,4,".",".",".","."],[".",".",".",".",".",".",7,5,7,5],[".",".",".",".",".",".",".",".",".","."],[".",".",".",".",".",".",".",".",".","."]]],"numberofstrings":6,"notes":["E","B","G","D","A","E","B"],"capo":0,"stringnotes":["E4","B3","G3","D3","A2","E2"],"comments":["Stave 1:","Stave 2:","Stave 3:","Stave 4:","Stave 5:","Stave 6:","Stave 7:"],"timing":[["W","W","W","W","W","W","W","W","W","W","W","W","W","W","W","W"],["W","W","W","W","W",null,"W","W","W"],["W","W","W","W","W","W","W","W","W","W"],["W","W","W","W","W","W","W","W","W","W","W","W","W"],["W","W","W","W","W","W","W","W"],["W","W","W","W",null,"W","W","W","W","W","W","W","W","W"],["W",null,"W","W","W","W","W","W","W","W"]],"timingvisible":false,"tabcounter":10,"stave":6,"totalstaves":7,"instrument":"6guitar","selectedtuning":"6_standard","version":"13"}

Member for

1 month 2 weeks
Submitted by CarloPureco on Wed, 2021-08-04 13:25