Sound will begin in 5 seconds

Random Riffs

Chords
01234567891011121314151617181920212223
E
B
G
D
A
E
B
0 1 2 3 4 5 6 7 8 9 10 11 12 13 14 15 16 17 18 19 20 21 22 23
Song Science #1: How Pros Use 6 Chords to Write Hit Songs
(/) Slide Up  (\) Slide Down  (h) Hammer On  (p) Pull Off  (b) Bend (r) Release (v) Vibrato

Stave 1:

E|----------------------------------------------------------------------------------------
B|----------------------------------------------------------------------------------------
G|----------------------------------------------------------------------------------------
D|----------------------------------------------------------------------------------------
A|-------4---5---4-----2---0h1p0-----0h1p0--------------4---5---4-----2---0h1p0-----0h1p0-
E|-2-2-2---2---2---2-2---2-------3-0-------3-0----2-2-2---2---2---2-2---2-------3-0-------

Stave 2:

E|-------------------------------
B|-------------------------------
G|-------------------------------
D|-------5-----7-----------------
A|-2-----3-----5-----7-----5h7-7-
E|-0-0-0---0-0---0-0-5-0-0-3-5-5-

Stave 3:

E|-----------------------------------------------------------------------
B|-----------------------------------------------------------------------
G|-----------------------------------------------------------------------
D|-------------------------2h3-3-2---------------5p3p2-3p2p0-------------
A|-2-------2-------2-------2-3-3-2-------2-------------------5p3p2-3p2p0-
E|-0-0-0-0-0-0-0-0-0-0-0-0-------0-0-0-0-0-0-0-0-------------------------

Stave 4:

E|-----------------------------
B|-----------------------------
G|-----------------------------
D|-----------------------3-2---
A|-2---------------------1-0-3-
E|-0-0-0-0-0-0-0-0-0-0-0-----1-

Stave 5:

E|----------------------------------------------------------------------------------12----12-
B|----------------------------------------------------------------12----12-15-12-15----15----
G|----------------------------------------------12----12-14-12-14----14----------------------
D|----------------------------12----12-14-12-14----14----------------------------------------
A|----------12----12-14-12-14----14----------------------------------------------------------
E|-14-12-14----14----------------------------------------------------------------------------

Stave 6:

E|-
B|-
G|-
D|-
A|-
E|-

http://www.guitartabcreator.com
Guitar Tab Creator is intended to store guitar tab created through the tool. It currently does not support in-line text editing. Any text you place in here will be lost. If you need to comment on your tab, please use the "Tab Notes" section located below.