Sound will begin in 5 seconds

Froggy

Chords
01234567891011121314151617181920212223
E
B
G
D
A
E
B
0 1 2 3 4 5 6 7 8 9 10 11 12 13 14 15 16 17 18 19 20 21 22 23
Song Science #1: How Pros Use 6 Chords to Write Hit Songs
(/) Slide Up  (\) Slide Down  (h) Hammer On  (p) Pull Off  (b) Bend (r) Release (v) Vibrato

Stave 1:

E|--10--7--5--3--------
B|------------0--------
G|------------0--------
D|------------0--------
A|------------2--------
E|------------3--------

Stave 2:

E|--10--7--12------------7--5-----------------7--5--3--
B|-------------15--------------8--3--------3-----------
G|-----------------------------------------------------
D|-----------------------------------------------------
A|-----------------------------------------------------
E|-----------------------------------------------------

Stave 3:

E|--3--2--0--------------3--2--0--------------3--2--0--------------------2--5--3--
B|-----------3--1-----------------3--0-----------------3--1--------1--3-----------
G|--------------------------------------------------------------------------------
D|--------------------------------------------------------------------------------
A|--------------------------------------------------------------------------------
E|--------------------------------------------------------------------------------

Stave 4:

E|-----------------------------------------------
B|--3--5--3--0--1--------------0--1--3--1--0--3--
G|--------------------------2--------------------
D|-----------------------2-----------------------
A|-----------------------------------------------
E|-----------------------------------------------

Stave 5:

E|--10--7--5--3--------10--15--17--------------------------------------------------------
B|---------------------------------15----------------------------------------------------
G|---------------------------------------------------------------------------------------
D|-------------------------------------------5--7--5-------------------------------------
A|----------------------------------------------------5--3/5--2--------2--0--2--3--------
E|---------------------------------------------------------------------------------5--3--

Stave 6:

E|--------------------1--------3--2--0--2--------------------------2--3--5--------------------------------
B|-----------5-----3-----------------------3--1--0--------0--1--3-----------1--------3--1--0--1--3--------
G|-----0--2-----2-----------------------------------------------------------------------------------2--0--
D|--2-----------------------------------------------------------------------------------------------------
A|--------------------------------------------------------------------------------------------------------
E|--------------------------------------------------------------------------------------------------------

Stave 7:

E|--3--2--------------------------------
B|--------3--5--5--1--1--0--------------
G|--------------------------2-----------
D|-----------------------------2--------
A|--------------------------------2-----
E|-----------------------------------2--

Stave 8:

E|--3--
B|--0--
G|--0--
D|--0--
A|--2--
E|--3--

Stave 9:

E|--
B|--
G|--
D|--
A|--
E|--

http://www.guitartabcreator.com
Guitar Tab Creator is intended to store guitar tab created through the tool. It currently does not support in-line text editing. Any text you place in here will be lost. If you need to comment on your tab, please use the "Tab Notes" section located below.