Sound will begin in 5 seconds

Africa- The musical

01234567891011121314151617181920212223
E
B
G
D
A
E
B
0 1 2 3 4 5 6 7 8 9 10 11 12 13 14 15 16 17 18 19 20 21 22 23
Song Science #1: How Pros Use 6 Chords to Write Hit Songs
(/) Slide Up  (\) Slide Down  (h) Hammer On  (p) Pull Off  (b) Bend (r) Release (v) Vibrato

Stave 1:

E|--11--9------9---------------------------------------------------------------------------
B|---------12-----12--9--12--9------9------------------------------------------------------
G|------------------------------11-----11--8--11--8------8---------------------------------
D|---------------------------------------------------11-----11--9--11--9------9--11p9------
A|------------------------------------------------------------------------11-----------11--
E|-----------------------------------------------------------------------------------------

Stave 2:

E|-------------------------------------------------------------------------------------
B|-------------------------------------------------------------------------------------
G|-------------------------------------------------------------------------------------
D|----------11--14--13--11-------------------------------------------------------------
A|--11--12------------------14--12--11------14--12--11--------------14-----------------
E|--------------------------------------14--------------14--12--11------14--12--11h12--

Stave 3:

E|------------------------------------------11--9--7--
B|----------------------------------------------------
G|----------------------11------11--13--11------------
D|--11------13--11--13------13------------------------
A|------14--------------------------------------------
E|----------------------------------------------------

http://www.guitartabcreator.com
Guitar Tab Creator is intended to store guitar tab created through the tool. It currently does not support in-line text editing. Any text you place in here will be lost. If you need to comment on your tab, please use the "Tab Notes" section located below.