Sound will begin in 5 seconds

return replaced 2

Chords
01234567891011121314151617181920212223
E
B
G
D
A
E
B
0 1 2 3 4 5 6 7 8 9 10 11 12 13 14 15 16 17 18 19 20 21 22 23
Song Science #1: How Pros Use 6 Chords to Write Hit Songs
(/) Slide Up  (\) Slide Down  (h) Hammer On  (p) Pull Off  (b) Bend (r) Release (v) Vibrato

Capo Fret 4

Stave 1:

G|---------------------------17-----------------------
D|---------18---------18------------18-----16-----18--
A|-----18---------18----------------------------------
E|--0----------0----------0------0------0------0------

Stave 2:

G|---------13---------13---------13---------13---------13------
D|-----15---------15---------15---------15---------15------15--
A|--0----------0----------0----------0----------0--------------
E|-------------------------------------------------------------

Stave 3:

G|-----------------
D|-----------------
A|--0--7--9/11-----
E|--------------0--

Stave 4:

G|------------------------8-----9--
D|-----6-----8------9-----9-----6--
A|--0-----0-----11-----9-----7-----
E|---------------------------------

http://www.guitartabcreator.com
Guitar Tab Creator is intended to store guitar tab created through the tool. It currently does not support in-line text editing. Any text you place in here will be lost. If you need to comment on your tab, please use the "Tab Notes" section located below.