Sound will begin in 5 seconds

orbit gently

Chords
01234567891011121314151617181920212223
E
B
G
D
A
E
B
0 1 2 3 4 5 6 7 8 9 10 11 12 13 14 15 16 17 18 19 20 21 22 23
Song Science #1: How Pros Use 6 Chords to Write Hit Songs
(/) Slide Up  (\) Slide Down  (h) Hammer On  (p) Pull Off  (b) Bend (r) Release (v) Vibrato

Stave 1:

G|--------------------------------------------------------------------------------------------------------------------------------------
D|--7--7-----7-----7-----7-----7--9--10--10------10------10------10------10--12--12-----------------------------------------------------
A|--------7-----7-----7-----7----------------10------10------10------10--------------10------10------10------10------10--12--12---------
E|---------------------------------------------------------------------------------------10------10------10------10--------------10--0--

Stave 2:

G|---------------
D|----7----------
A|-------10------
E|-----------10--

Stave 3:

G|--9--12--12------
D|--7--10--9---12--
A|--0--0---10--9---
E|------------10--

Stave 4:

G|----
D|----
A|----
E|----

http://www.guitartabcreator.com
Guitar Tab Creator is intended to store guitar tab created through the tool. It currently does not support in-line text editing. Any text you place in here will be lost. If you need to comment on your tab, please use the "Tab Notes" section located below.