Sound will begin in 5 seconds

Comp task #1

Chords
01234567891011121314151617181920212223
E
B
G
D
A
E
B
0 1 2 3 4 5 6 7 8 9 10 11 12 13 14 15 16 17 18 19 20 21 22 23
Song Science #1: How Pros Use 6 Chords to Write Hit Songs
(/) Slide Up  (\) Slide Down  (h) Hammer On  (p) Pull Off  (b) Bend (r) Release (v) Vibrato

Stave 1:

E|--3--|--3--|--3--|--3--
B|--3--|--3--|--3--|--3--
G|--4--|--5--|--4--|--5--
D|--5--|--3--|--5--|--3--
A|--5--|--5--|--5--|--5--
E|--3--|--3--|--3--|--3--

Stave 2:

E|--3--|--x--|-----|--2--
B|--3--|--3--|--1--|--1--
G|--4--|--5--|-----|--2--
D|--5--|--4--|--2--|-----
A|--5--|--5--|-----|--x--
E|--3--|--x--|--x--|--x--

Stave 3:

E|--3--|-----|--3--|--2--
B|--6--|--3--|--2--|--2--
G|--4--|--1--|--3--|--2--
D|--3--|--2--|--2--|-----
A|--5--|--2--|-----|--x--
E|--3--|-----|--x--|--x--

Stave 4:

E|--3--
B|--3--
G|--4--
D|--5--
A|--5--
E|--3--

Stave 5:

E|-----|-----|--2--|--2--
B|--1--|--1--|--4--|--4--
G|-----|-----|--2--|--2--
D|--2--|--2--|--4--|--4--
A|--3--|--3--|--2--|--2--
E|--x--|--x--|--x--|--x--

Stave 6:

E|-----|-----|-----|--2--
B|--2--|--3--|--2--|--4--
G|-----|-----|-----|--2--
D|--2--|--2--|--2--|--4--
A|-----|-----|-----|--2--
E|--x--|--x--|--x--|--x--

Stave 7:

E|-----|--2--|--2--|--3--
B|--2--|--3--|--1--|--3--
G|-----|--2--|--2--|--4--
D|--2--|-----|-----|--5--
A|-----|--x--|--x--|--5--
E|--x--|--x--|--x--|--3--

Stave 8:

E|--2--|-----|--3-----|--x--
B|--3--|--2--|--3--3--|--3--
G|--2--|-----|--4--1--|--4--
D|-----|--2--|--5--2--|--4--
A|--x--|-----|--5--2--|--x--
E|--x--|--x--|--3-----|--3--

http://www.guitartabcreator.com
Guitar Tab Creator is intended to store guitar tab created through the tool. It currently does not support in-line text editing. Any text you place in here will be lost. If you need to comment on your tab, please use the "Tab Notes" section located below.