Finger Warmup

Chords

01234567891011121314151617181920212223
E
B
G
D
A
E
B
0 1 2 3 4 5 6 7 8 9 10 11 12 13 14 15 16 17 18 19 20 21 22 23
(/) Slide Up  (\) Slide Down  (h) Hammer On  (p) Pull Off  (b) Bend (r) Release (v) Vibrato

E|-0-1-2-3-4/5-5\4-3-2-1-0-------------------------------------------------
B|-------------------------0-1-2-3-4/5-5\4-3-2-1-0-------------------------
G|-------------------------------------------------0-1-2-3-4/5-5\4-3-2-1-0-
D|-------------------------------------------------------------------------
A|-------------------------------------------------------------------------
E|-------------------------------------------------------------------------



E|-------------------------------------------------------------------------
B|-------------------------------------------------------------------------
G|-------------------------------------------------------------------------
D|-0-1-2-3-4/5-5\4-3-2-1-0-------------------------------------------------
A|-------------------------0-1-2-3-4/5-5\4-3-2-1-0-------------------------
E|-------------------------------------------------0-1-2-3-4/5-5\4-3-2-1-0-
							http://www.guitartabcreator.com

Member for

8 years 9 months
Submitted by camgman65 on Wed, 2011-08-10 16:09