Sound will begin in 5 seconds

Twisted Mountain Steps

Chords
01234567891011121314151617181920212223
E
B
G
D
A
E
B
0 1 2 3 4 5 6 7 8 9 10 11 12 13 14 15 16 17 18 19 20 21 22 23
(/) Slide Up  (\) Slide Down  (h) Hammer On  (p) Pull Off  (b) Bend (r) Release (v) Vibrato

Stave 1:

E|-----------12-----------12-----------12-----------12--12p10--10p8\7--------7---------------------------------
B|------------------------------------------------------------------------------12--10--9--10bp9---------------
G|--------9------------9------------9------------9------------------------------------------------10--9--------
D|-------------------------------------------------------------------------------------------------------------
A|-----7------------7------------7------------7----------------------------------------------------------------
E|--0------------0------------0------------0-------------------------------------------------------------------

Stave 2:

E|-----------0-----------0-----------0-----------0-----------------------------------------------
B|-----------------------------------------------------------------------------------------------
G|-----9-----------9-----------9-----------9--------9/12--12/11--11p9------9-----------9h11p0----
D|---------------------------------------------------------------------11-----9--------------h8--
A|--------7-----------7-----------7-----------7--------------------------------------------------
E|--0-----------0-----------0-----------0--------------------------------------------------------

Stave 3:

E|---------------------------------------------------------------------------------------------------------
B|---------------------------------------------------------------------------------------------------------
G|---------------------------------------------------------------------------------------------------------
D|--7-----5-----5h7p5-----------------------------9-----9-----9-----9-----9-----9-----9-----9-----9-----9--
A|---------------------7--7--7--7--7--7--7--7--7-----7-----7-----7-----7-----------7-----------7-----------
E|---------------------------------------------------------------------------0-----------0-----------0-----

Stave 4:

E|----------------------------------------
B|----------------------------------------
G|--9--------12--11-----9--6--9-----------
D|--9--------12--11-----9--6--9--9--------
A|--7--------10--9------7--4--7--9--------
E|-------------------------------7--------

http://www.guitartabcreator.com
Guitar Tab Creator is intended to store guitar tab created through the tool. It currently does not support in-line text editing. Any text you place in here will be lost. If you need to comment on your tab, please use the "Tab Notes" section located below.