Voice 001 2:36pm

Chords

01234567891011121314151617181920212223
E
B
G
D
A
E
B
0 1 2 3 4 5 6 7 8 9 10 11 12 13 14 15 16 17 18 19 20 21 22 23
(/) Slide Up  (\) Slide Down  (h) Hammer On  (p) Pull Off  (b) Bend (r) Release (v) Vibrato

Stave 1:

E|------------------------------------------
B|------------------------------------------
G|--------9--------9--9--9--9--9-----------/
D|--------9--------9--9--9--9--9------------
A|--7--7--7--------7--7--7--7--7------------
E|------------------------------------------

Stave 2:

E|------------------------------------------
B|------------------------------------------
G|------------------------------------------
D|------------------------------------------
A|--6--6--6--------6--6--6--6--6-----------\
E|------------------------------------------

Stave 3:

E|-----------------------------------------
B|-----------------------------------------
G|-----------------------------------------
D|-----------------------------------------
A|-----------------------------------------
E|--9--9--9--------9--9--9--9--9-----------

Stave 4:

E|-----------------------------------------|--
B|-----------------------------------------|--
G|-----------------------------------------|--
D|-----------------------------------------|--
A|-----------------------------------------|--
E|--7--7--7--------7--7--7--7--7-----------|--

							http://www.guitartabcreator.com
Tab Notes

Instruments
{"title":"Voice 001 2:36pm","strings":[[[".",".",".","_","_",".",".",".",".",".","_","_","_","."],[".",".",".","_","_",".",".",".",".",".","_","_","_","."],[".",".",9,"_","_",9,9,9,9,9,"_","_","_","/"],[".",".",9,"_","_",9,9,9,9,9,"_","_","_","."],[7,7,7,"_","_",7,7,7,7,7,"_","_","_","."],[".",".",".","_","_",".",".",".",".",".","_","_","_","."]],[[".",".",".","_","_",".",".",".",".",".","_","_","_","."],[".",".",".","_","_",".",".",".",".",".","_","_","_","."],[".",".",".","_","_",".",".",".",".",".","_","_","_","."],[".",".",".","_","_",".",".",".",".",".","_","_","_","."],[6,6,6,"_","_",6,6,6,6,6,"_","_","_","\\"],[".",".",".","_","_",".",".",".",".",".","_","_","_","."]],[[".",".",".","_","_",".",".",".",".",".","_","_","_"],[".",".",".","_","_",".",".",".",".",".","_","_","_"],[".",".",".","_","_",".",".",".",".",".","_","_","_"],[".",".",".","_","_",".",".",".",".",".","_","_","_"],[".",".",".","_","_",".",".",".",".",".","_","_","_"],[9,9,9,"_","_",9,9,9,9,9,"_","_","_"]],[[".",".",".","_","_",".",".",".",".",".","_","_","_","|"],[".",".",".","_","_",".",".",".",".",".","_","_","_","|"],[".",".",".","_","_",".",".",".",".",".","_","_","_","|"],[".",".",".","_","_",".",".",".",".",".","_","_","_","|"],[".",".",".","_","_",".",".",".",".",".","_","_","_","|"],[7,7,7,"_","_",7,7,7,7,7,"_","_","_","|"]]],"numberofstrings":6,"notes":["E","B","G","D","A","E","B"],"capo":0,"stringnotes":["E4","B3","G3","D3","A2","E2"],"comments":["Stave 1:","Stave 2:","Stave 3:","Stave 4:"],"timing":[["W","W","W",null,null,"W","W","W","W","W","W",null,null,"W","W","W"],["W","W","W",null,null,"W","W","W","W","W"],["W","W","W",null,null,"W","W","W","W","W"],["W","W","W",null,null,"W","W","W","W","W"]],"timingvisible":false,"tabcounter":14,"stave":3,"totalstaves":4,"instrument":"6guitar","selectedtuning":"6_standard","version":"13"}

Member for

3 years 4 months
Submitted by Calledthesun on Mon, 2017-08-14 13:42