Sound will begin in 5 seconds

Vanilla Twilight

Chords
01234567891011121314151617181920212223
E
B
G
D
A
E
B
0 1 2 3 4 5 6 7 8 9 10 11 12 13 14 15 16 17 18 19 20 21 22 23
(/) Slide Up  (\) Slide Down  (h) Hammer On  (p) Pull Off  (b) Bend (r) Release (v) Vibrato

"The stars lean down to kiss you, and I lie awake and miss you..."

E|--------------------------------------------------
B|--------------------------------------------------
G|--4-----4-----3-----3-----4-----4-----9-----9-----
D|--4-----4-----4-----4-----6-----6-----9-----9-----
A|-----2-----2-----------------7-----7-----7-----7--
E|-----------------2-----2--------------------------



E|------------------------------------------------------------------------------
B|------------------------------------------------------------------------------
G|--------4--6--------------4-----6/9--8--6--4--------4--6-----4--6/8--8--------
D|--4--6--------------4--6-----6----------------4--6-------------------------6--
A|------------------------------------------------------------------------------
E|------------------------------------------------------------------------------



E|----------------------------------------------------------------------------------------
B|----------------------------------------------------------------------------------------
G|--------4--6--------------4-----6/9--8--6--4--------4--6-----4--6/8--------4h6----------
D|--4--6--------------4--6-----6----------------4--6----------------------6-------6--4/9--
A|----------------------------------------------------------------------------------------
E|----------------------------------------------------------------------------------------

"I'll watch the night turn light blue, but it's not the same without you.."

E|--------------------------------------------------
B|--------------------------------------------------
G|--4--4--4--3--3--3--3--3--4--4--4--9--9--9--9--9--
D|--4--4--4--4--4--4--4--4--6--6--6--9--9--9--9--9--
A|--2--2--2-----------------7--7--7--7--7--7--7--7--
E|-----------2--2--2--2--2--------------------------

"Because it takes two to whisper quietly.."

E|--------------------------------------------------
B|--------------------------------------------------
G|--4--4--4--3--3--3--3--3--1--1--1--9--9--9--9--9--
D|--4--4--4--4--4--4--4--4--2--2--2--9--9--9--9--9--
A|--2--2--2-----------------2--2--2--7--7--7--7--7--
E|-----------2--2--2--2--2--0--0--0--0--0--0--0--0--

"I don't feel so alone.."

E|-----------------------------------------------------
B|-----------------------------------------------------
G|--9--9-----8--8--8--8--8--8--6--6--6--6--6--6--6--6--
D|--9--9-----9--9--9--9--9--9--6--6--6--6--6--6--6--6--
A|--7--7-----6--6--6--6--6--6--4--4--4--4--4--4--4--4--
E|-----------------------------------------------------

"I don't feel so alone.."

E|-----------------------------------------------------
B|-----------------------------------------------------
G|--9--9-----8--8--8--8--8--8--4--4--6--6--6--6--6--6--
D|--9--9-----9--9--9--9--9--9--4--4--6--6--6--6--6--6--
A|--7--7-----6--6--6--6--6--6--2--2--4--4--4--4--4--4--
E|-----------------------------------------------------

"As many times as I blink I'll think of you.................tonight.."

E|------------------------------------------------
B|------------------------------------------------
G|-----6--6/8--6--6--4--6--6/8--6--8-----------4--
D|--4---------------------------------6--------6--
A|------------------------------------7--------7--
E|------------------------------------0--------0--

"I'll think of you tonight.."

E|--------------------------------------------------
B|--------------------------------------------------
G|--------------------------------------------------
D|--9--9--9--9--2--2--2--2--4--4--4--4--4--4--4--4--
A|--9--9--9--9--2--2--2--2--4--4--4--4--4--4--4--4--
E|--7--7--7--7--0--0--0--0--2--2--2--2--2--2--2--2--

"When violet eyes get brighter, and heavy wings grow lighter, I'll taste the sky and feel alive again.."

E|----------------------------------------------------
B|----------------------------------------------------
G|--6--6--5--5--5--5--5--6--6--6--11--11--11--11--11--
D|--6--6--6--6--6--6--6--8--8--8--11--11--11--11--11--
A|--4--4-----------------9--9--9--9---9---9---9---9---
E|--------4--4--4--4--4-------------------------------

"Oh darling I wish you were here.."

E|--------------------------------------------------
B|--------------------------------------------------
G|--------------------------------------------------
D|--6--6--6--6--6--6--6--6--6--6--6--6--6--6--6--6--
A|--6--6--6--6--6--6--6--6--6--6--6--6--6--6--6--6--
E|--4--4--4--4--4--4--4--4--4--4--4--4--4--4--4--4--



E|---------------------------------------------------------------------
B|---------------------------------------------------------------------
G|--------6--8-----------6-----8/11--10--8--6--------6--8--6--8/10-----
D|--6--8-----------6--8-----8------------------6--8-----------------8--
A|---------------------------------------------------------------------
E|---------------------------------------------------------------------



E|------------------------------------------------------------------------------
B|------------------------------------------------------------------------------
G|--------6--8-----------6-----8/11--10--8--6--------6--8--6--8/10--------------
D|--6--8-----------6--8-----8------------------6--8-----------------8-----6/11--
A|------------------------------------------------------------------------------
E|------------------------------------------------------------------------------

							http://www.guitartabcreator.com
Note:
Guitar Tab Creator is intended to store guitar tab created through the tool. It currently does not support in-line text editing. Any text you place in here will be lost. If you need to comment on your tab, please use the "Tab Notes" section located below.