Sound will begin in 5 seconds

Staring Over

Chords
01234567891011121314151617181920212223
E
B
G
D
A
E
B
0 1 2 3 4 5 6 7 8 9 10 11 12 13 14 15 16 17 18 19 20 21 22 23
(/) Slide Up  (\) Slide Down  (h) Hammer On  (p) Pull Off  (b) Bend (r) Release (v) Vibrato

Stave 1:

E|--------------------------------------------------------
B|--------------------------------------------------------
G|--------------------------------------------------------
D|-----7h8p7--------------10--------7h8p7-----------------
A|--0---------8--0--8/10------7--0---------8--7--8--7--5--
C|--0----------------------------0------------------------

Stave 2:

E|-------------------------------------------------------
B|-------------------------------------------------------
G|-------------------------------------------------------
D|-----7h8p7----------10--12--------0h5p0--3-------------
A|--0---------8--7/8----------7--0------------4/5-----5--
C|--0----------------------------0-----------------------

Stave 3:

E|----------------------------------------------------------
B|----------------------------------------------------------
G|----------------------------------------------------------
D|--------------8---------8------7--------7--------7-----7--
A|--------------10--------10-----8--------8--------8-----8--
C|--0--0--0--0------0--0------0-----0--0-----0--0-----0-----

Stave 4:

E|----------------------------------------------
B|----------------------------------------------
G|----------------------------------------------
D|--------------10--------10--8--------8--------
A|--------------8---------8---5--------5--------
C|--8--8--8--8------8--8------5--5--5-----5-----

							http://www.guitartabcreator.com
Note:
Guitar Tab Creator is intended to store guitar tab created through the tool. It currently does not support in-line text editing. Any text you place in here will be lost. If you need to comment on your tab, please use the "Tab Notes" section located below.