Sound will begin in 5 seconds

Love note

Chords
01234567891011121314151617181920212223
E
B
G
D
A
E
B
0 1 2 3 4 5 6 7 8 9 10 11 12 13 14 15 16 17 18 19 20 21 22 23
(/) Slide Up  (\) Slide Down  (h) Hammer On  (p) Pull Off  (b) Bend (r) Release (v) Vibrato

Intro/Verse

D|-----------0-----------------0-----------------0-----------------0-----------------0----|-
A|---------0-----------------0-----------------0-----------------0-----------------0------|-
A|-------0-----------------0-----------------0-----------------0-----------------0--------|-
D|-----9-----------------9-----------------9-----------------9-----------------9----------|-
A|---0-----------------0-----------------7-----------------7-----------------7------------|-
D|-0-----------------0-----------------7-----------------7-----------------7--------------|-



D|------------0------------------0-----------------0-----------------0-------------------|-
A|----------0------------------0-----------------0-----------------0---------------------|-
A|--------0------------------0-----------------0-----------------0-----------------------|-
D|-----11-----------------11-----------------7-----------------7-------------------------|-
A|---9------------------9------------------5-----------------5---------------------------|-
D|-9------------------9------------------5-----------------5-----------------------------|-

Chorus

D|-------------------------------------------------------------------------
A|-------------------------------------------------------------------------
A|-------------------------------------------------------------------------
D|-9-9-9-9-9-9-9-9-12-12-12-11-11-11-12-12-7-7-7-7-7-7-7-7-7-7-7-7-7-7-7-7-
A|-7-7-7-7-7-7-7-7-9--9--9--9--9--9--9--9--5-5-5-5-5-5-5-5-5-5-5-5-5-5-5-5-
D|-7-7-7-7-7-7-7-7-9--9--9--9--9--9--9--9--5-5-5-5-5-5-5-5-5-5-5-5-5-5-5-5-

							http://www.guitartabcreator.com
Note:
Guitar Tab Creator is intended to store guitar tab created through the tool. It currently does not support in-line text editing. Any text you place in here will be lost. If you need to comment on your tab, please use the "Tab Notes" section located below.