Sound will begin in 5 seconds

D's&C's

Chords
01234567891011121314151617181920212223
E
B
G
D
A
E
B
0 1 2 3 4 5 6 7 8 9 10 11 12 13 14 15 16 17 18 19 20 21 22 23
(/) Slide Up  (\) Slide Down  (h) Hammer On  (p) Pull Off  (b) Bend (r) Release (v) Vibrato

Stave 1:

E|-----------------------------------------------------------------------------------------------------
B|-----------------------------------------------------------------------------------------------------
G|-----3--------3--------------3--------3-----------------2--------2--------------2--------2-----------
D|--------------------0-----------------------0--------------------------0-----------------------0-----
A|--------5--------------5--------5--------------5-----------5--------------5--------5--------------5--
D|--5--------5-----5--------5--------5-----5-----------0--------0-----0--------0--------0-----0--------

Stave 2:

E|--
B|--
G|--
D|--
A|--
D|--

Stave 3:

E|-----------------------------------------------------------------------------------------------------
B|-----------------------------------------------------------------------------------------------------
G|-----3--------3--------------3--------3--------3--------2--------2--------------2--------2--------2--
D|--------5--------5-----5--------5--------5-----------------4--------4-----4--------4--------4--------
A|--5--------5--------5-----5--------5--------5--------5--------5--------5-----5--------5--------5-----
D|-----------------------------------------------------------------------------------------------------

Stave 4:

E|--------------------------------------------------------------------
B|--11--11-----11-----11--11-----11-----10--10-----10--10--10-----10--
G|-------------0-----------------0------0-----------------------------
D|----------0-----------------0------0--------------------------------
A|--10----------------10-------------9----------9--------------9------
D|-----------------------------------0-----------------0--------------

							http://www.guitartabcreator.com
Note:

 

 Pickstrumental in progress 1

Guitar Tab Creator is intended to store guitar tab created through the tool. It currently does not support in-line text editing. Any text you place in here will be lost. If you need to comment on your tab, please use the "Tab Notes" section located below.