Sound will begin in 5 seconds

Don't Go Breaking My Heart

Chords
01234567891011121314151617181920212223
E
B
G
D
A
E
B
0 1 2 3 4 5 6 7 8 9 10 11 12 13 14 15 16 17 18 19 20 21 22 23
(/) Slide Up  (\) Slide Down  (h) Hammer On  (p) Pull Off  (b) Bend (r) Release (v) Vibrato

Stave 1:

E|------------------------
B|------------------------
G|--------------5---------
D|----7-5-------5-3-------
A|----7-5-------3-3-------
E|----5-3---------1-------

Stave 2:

E|-8-7-----8-7-----8-7-----8-7-----8-7-----8-7-----8-7-----8-7-----
B|-----8-5-----8-5-----8-5-----8-5-----8-5-----8-5-----8-5-----8-5-
G|-----------------------------------------------------------------
D|-----------------------------------------------------------------
A|-----------------------------------------------------------------
E|-----------------------------------------------------------------

Stave 3:

E|---------------------------------
B|---------------------------------
G|---------------------------------
D|-7-------5-------2-------3-------
A|-7-------5-------2-------3-------
E|-5-------3-------0-------1-------

Stave 4:

E|---------------------------------
B|---------------------------------
G|-5-------5-------2---------------
D|-5-------3-------2-------3-------
A|-3-------5-------0-------3-------
E|-------------------------1-------

							http://www.guitartabcreator.com
Note:
Guitar Tab Creator is intended to store guitar tab created through the tool. It currently does not support in-line text editing. Any text you place in here will be lost. If you need to comment on your tab, please use the "Tab Notes" section located below.