Sound will begin in 5 seconds

Do You Miss Me

Chords
01234567891011121314151617181920212223
E
B
G
D
A
E
B
0 1 2 3 4 5 6 7 8 9 10 11 12 13 14 15 16 17 18 19 20 21 22 23
(/) Slide Up  (\) Slide Down  (h) Hammer On  (p) Pull Off  (b) Bend (r) Release (v) Vibrato

Intro/Verse

E|-----------------------------------------------------------------------------------------------------------------------|--
B|-----------------------------------------------------------------------------------------------------------------------|--
G|-----------------------------------------------------------------------------------------------------------------------|--
D|--------0--------------0--------------0--------------0--------------0--------------0--------------0--------------0-----|--
A|-----9--------------7--------------5--------------5--------------9--------------7--------------5--------------5--------|--
E|--7--------------5--------------3--------------3--------------7--------------5--------------3--------------3-----------|--



E|-------------------------------------------------------------------------------------------------------------------------|--
B|-------------------------------------------------------------------------------------------------------------------------|--
G|-------------------------------------------------------------------------------------------------------------------------|--
D|--------0----------------0--------------0--------------0--------------0--------------0--------------0--------------0-----|--
A|-----9---------------12--------------5--------------5--------------9--------------7--------------5--------------5--------|--
E|--7--------------10---------------3--------------3--------------7--------------5--------------3--------------3-----------|--

Bridge

E|-----------------------------------------------------------|--
B|-----------------------------------------------------------|--
G|-----------------------------------------------------------|--
D|--------0--------------0--------------0--------------0-----|--
A|-----4--------------5--------------4--------------7--------|--
E|--2--------------3--------------2--------------5-----------|--

Chorus

E|---------------------------------------------------------------------------------------------------------------------------
B|---------------------------------------------------------------------------------------------------------------------------
G|---------------------------------------------------------------------------------------------------------------------------
D|----------0----------------0--------------0--------------0--------------0--------------0--------------0--------------0-----
A|------12---------------12--------------7--------------7--------------5--------------5--------------9--------------7--------
E|--10---------------10---------------5--------------5--------------3--------------3--------------7--------------5-----------



E|---------------------------------------------------------------------------------------------------------------------------
B|---------------------------------------------------------------------------------------------------------------------------
G|---------------------------------------------------------------------------------------------------------------------------
D|----------0----------------0--------------0--------------0--------------0--------------0--------------0--------------0-----
A|------12---------------12--------------7--------------7--------------9--------------9--------------5--------------7--------
E|--10---------------10---------------5--------------5--------------7--------------7--------------3--------------5-----------

The end

E|---------------|--
B|---------------|--
G|--11-----------|--
D|--0------------|--
A|--12-----------|--
E|--10-----------|--

							http://www.guitartabcreator.com
Note:

 

 Another original, a slower version than the first draft. Very slow tempo

Guitar Tab Creator is intended to store guitar tab created through the tool. It currently does not support in-line text editing. Any text you place in here will be lost. If you need to comment on your tab, please use the "Tab Notes" section located below.