Sound will begin in 5 seconds

Daddy Issues

Chords
01234567891011121314151617181920212223
E
B
G
D
A
E
B
0 1 2 3 4 5 6 7 8 9 10 11 12 13 14 15 16 17 18 19 20 21 22 23
(/) Slide Up  (\) Slide Down  (h) Hammer On  (p) Pull Off  (b) Bend (r) Release (v) Vibrato

Stave 1:

B |-----------------------------------------------------------
Gb|-----------------------------------------------------------
D |-----------------------------------------------------------
A |-0-------4-------8-------6-------0-------4-------8-------6-
E |-0-------4-------8-------6-------0-------4-------8-------6-
A |-0-------4-------8-------6-------0-------4-------8-------6-

Stave 2:

B |----------------------------------------------------------------------------------------
Gb|----------------------------------------------------------------------------------------
D |---------11-------8-------11----13-------6-6-6-6-------6-6-6----------------------------
A |-8-------11-------8-------11----13-------6-6-6-6-------6-6-6-4-4-4-4-4-4-4-4----8-8-8-8-
E |-8-------9--------6-------9-----11-------4-4-4-4-------4-4-4-4-4-4-4-4-4-4-4----8-8-8-8-
A |-8-----------------------------------------------------------4-4-4-4-4-4-4-4----8-8-8-8-

Stave 3:

B |-------------------------
Gb|-------------------------
D |-------------------------
A |-8-8-8-8-6-6-6-6-6-6-6-6-
E |-8-8-8-8-6-6-6-6-6-6-6-6-
A |-8-8-8-8-6-6-6-6-6-6-6-6-

							http://www.guitartabcreator.com
Note:
Guitar Tab Creator is intended to store guitar tab created through the tool. It currently does not support in-line text editing. Any text you place in here will be lost. If you need to comment on your tab, please use the "Tab Notes" section located below.