BCaus0

Chords

01234567891011121314151617181920212223
E
B
G
D
A
E
B
0 1 2 3 4 5 6 7 8 9 10 11 12 13 14 15 16 17 18 19 20 21 22 23
(/) Slide Up  (\) Slide Down  (h) Hammer On  (p) Pull Off  (b) Bend (r) Release (v) Vibrato

Stave 1:

E|------------------------------------------------
B|------------------------------------------------
G|--------2---------------------2-----------2-----
D|-----0--------3p2p0--------0-----------0--------
A|--5--------5---------0--1--------1--3--------3--
E|------------------------------------------------

Stave 2:

E|--------------------------------------------------
B|--------------------------------------------------
G|--------2-----3--2--------------2-----3--2--------
D|-----0-----0--------2--0-----0-----0--------2--0--
A|--5-----------------------5-----------------------
E|--------------------------------------------------

							http://www.guitartabcreator.com
Instruments
{"title":"BCaus0","strings":[[[".",".",".",".",".",".",".",".",".",".",".",".",".",".",".",".",".","."],[".",".",".",".",".",".",".",".",".",".",".",".",".",".",".",".",".","."],[".",".",2,".",".",".",".",".",".",".",".",".",2,".",".",".",2,"."],[".",0,".",".",3,"p",2,"p",0,".",".",0,".",".",".",0,".","."],[5,".",".",5,".",".",".",".",".",0,1,".",".",1,3,".",".",3],[".",".",".",".",".",".",".",".",".",".",".",".",".",".",".",".",".","."]],[[".",".",".",".",".",".",".",".",".",".",".",".",".",".",".","."],[".",".",".",".",".",".",".",".",".",".",".",".",".",".",".","."],[".",".",2,".",3,2,".",".",".",".",2,".",3,2,".","."],[".",0,".",0,".",".",2,0,".",0,".",0,".",".",2,0],[5,".",".",".",".",".",".",".",5,".",".",".",".",".",".","."],[".",".",".",".",".",".",".",".",".",".",".",".",".",".",".","."]]],"numberofstrings":6,"notes":["E","B","G","D","A","E","B"],"capo":0,"stringnotes":["E4","B3","G3","D3","A2","E2"],"comments":["Stave 1:","Stave 2:"],"timing":[["W","W","W","W","W",null,"W",null,"W","W","W","W","W","W","W","W","W","W"],["W","W","W","W","W","W","W","W","W","W","W","W","W","W","W","W"]],"timingvisible":false,"tabcounter":16,"stave":1,"totalstaves":2,"instrument":"6guitar","selectedtuning":"6_standard","version":"13"}

Member for

3 years 4 months
Submitted by Calledthesun on Sat, 2017-05-27 09:31