7/9/97

Chords

01234567891011121314151617181920212223
E
B
G
D
A
E
B
0 1 2 3 4 5 6 7 8 9 10 11 12 13 14 15 16 17 18 19 20 21 22 23
(/) Slide Up  (\) Slide Down  (h) Hammer On  (p) Pull Off  (b) Bend (r) Release (v) Vibrato

Stave 1:

E|--------------------------------------------------------------------------------------------------
B|--------5--------5-----5--------5--------5-----5--------9--------9--------------9--------9--------
G|-----4--------4--------------4--------4--------------6--------6--------6-----6--------6--------6--
D|--2--------2--------2-----2--------2--------2-----------------------------------------------------
A|--------------------------------------------------8--------8--------8-----8--------8--------8-----
E|--------------------------------------------------------------------------------------------------

Stave 2:

E|--------------------------------------------------------------------------------------------------
B|--------5--------5--------------5--------5--------------5--------5--------------4--------4--------
G|-----4--------4--------4-----4--------4--------4-----4--------4--------4-----4--------4--------4--
D|--------------------------------------------------------------------------1--------1--------1-----
A|--4--------4--------4-----4--------4--------4-----0--------0--------0-----------------------------
E|--------------------------------------------------------------------------------------------------

							http://www.guitartabcreator.com
Instruments
{"title":"7/9/97","strings":[[[".",".",".",".",".",".",".",".",".",".",".",".",".",".",".",".",".",".",".",".",".",".",".",".",".",".",".",".",".",".",".","."],[".",".",5,".",".",5,".",5,".",".",5,".",".",5,".",5,".",".",9,".",".",9,".",".",".",".",9,".",".",9,".","."],[".",4,".",".",4,".",".",".",".",4,".",".",4,".",".",".",".",6,".",".",6,".",".",6,".",6,".",".",6,".",".",6],[2,".",".",2,".",".",2,".",2,".",".",2,".",".",2,".",".",".",".",".",".",".",".",".",".",".",".",".",".",".",".","."],[".",".",".",".",".",".",".",".",".",".",".",".",".",".",".",".",8,".",".",8,".",".",8,".",8,".",".",8,".",".",8,"."],[".",".",".",".",".",".",".",".",".",".",".",".",".",".",".",".",".",".",".",".",".",".",".",".",".",".",".",".",".",".",".","."]],[[".",".",".",".",".",".",".",".",".",".",".",".",".",".",".",".",".",".",".",".",".",".",".",".",".",".",".",".",".",".",".","."],[".",".",5,".",".",5,".",".",".",".",5,".",".",5,".",".",".",".",5,".",".",5,".",".",".",".",4,".",".",4,".","."],[".",4,".",".",4,".",".",4,".",4,".",".",4,".",".",4,".",4,".",".",4,".",".",4,".",4,".",".",4,".",".",4],[".",".",".",".",".",".",".",".",".",".",".",".",".",".",".",".",".",".",".",".",".",".",".",".",1,".",".",1,".",".",1,"."],[4,".",".",4,".",".",4,".",4,".",".",4,".",".",4,".",0,".",".",0,".",".",0,".",".",".",".",".",".",".",".","."],[".",".",".",".",".",".",".",".",".",".",".",".",".",".",".",".",".",".",".",".",".",".",".",".",".",".",".",".",".",".",".","."]]],"numberofstrings":6,"notes":["E","B","G","D","A","E","B"],"capo":0,"stringnotes":["E4","B3","G3","D3","A2","E2"],"comments":["Stave 1:","Stave 2:"],"timing":[["W","W","W","W","W","W","W","W","W","W","W","W","W","W","W","W","W","W","W","W","W","W","W","W","W","W","W","W","W","W","W","W"],["W","W","W","W","W","W","W","W","W","W","W","W","W","W","W","W","W","W","W","W","W","W","W","W","W","W","W","W","W","W","W","W"]],"timingvisible":false,"tabcounter":32,"stave":1,"totalstaves":2,"instrument":"6guitar","selectedtuning":"6_standard","version":"13"}

Member for

3 years 4 months
Submitted by Calledthesun on Tue, 2018-07-10 00:01