Sound will begin in 5 seconds

123255418552

01234567891011121314151617181920212223
E
B
G
D
A
E
B
0 1 2 3 4 5 6 7 8 9 10 11 12 13 14 15 16 17 18 19 20 21 22 23
(/) Slide Up  (\) Slide Down  (h) Hammer On  (p) Pull Off  (b) Bend (r) Release (v) Vibrato

Intro

D |---------------------------------------------------------------------------------------------|--
Ab|---------------------------------------------------------------------------------------------|--
F |---------------------------------------------------------------------------------------------|--
C |---------------------------------------------------------------------------------------------|--
G |---------------------------------------------------------------------------------------------|--
C |--0--0-----8--8-----0--0-----8--8-----0--0--8-----0--0-----8--8-----0--0-----8--8--10--8-----|--



D |--------------------------------------------------------------------------------------------|--
Ab|--------------------------------------------------------------------------------------------|--
F |--------------------------------------------------------------------------------------------|--
C |--------------------------------------------------------------------------------------------|--
G |--------------------------------------------------------------------------------------------|--
C |--0--0-----7--7-----0--0-----7--7-----0--0--7-----0--0-----7--7-----0--0-----7--7--8--7-----|--

Stave 3:

D |-------------------------------------------------------------------------------
Ab|-------------------------------------------------------------------------------
F |-------------------------------------------------------------------------------
C |-------------------------------------------------------------------------------
G |--------8--7-----------8--7--5--7--------7h8--------7p5--------4h5--------5h7--
C |--0--0-----------0--0--------------0--0-------0--0-------0--0-------0--0-------

							http://www.guitartabcreator.com
Note:
Guitar Tab Creator is intended to store guitar tab created through the tool. It currently does not support in-line text editing. Any text you place in here will be lost. If you need to comment on your tab, please use the "Tab Notes" section located below.