Rod's D Toon

Chords

01234567891011121314151617181920212223
E
B
G
D
A
E
B
0 1 2 3 4 5 6 7 8 9 10 11 12 13 14 15 16 17 18 19 20 21 22 23
(/) Slide Up  (\) Slide Down  (h) Hammer On  (p) Pull Off  (b) Bend (r) Release (v) Vibrato

Stave 1:

G|-----------------------------------------
D|--------------------------------7--------
A|-----------------------0--5--7-----7/12--
D|--0--4--0--4--5--0--7--------------------

Stave 2:

G|-----------------------------------------
D|-----------------------------------------
A|-----------------------------------------
D|--0--4--0--4--5--0--2-----0--2-----0--2--

							http://www.guitartabcreator.com
Instruments
{"strings":[[[".",".",".",".",".",".",".",".",".",".",".",".",".","."],[".",".",".",".",".",".",".",".",".",".",7,".",".","."],[".",".",".",".",".",".",".",0,5,7,".",7,"/",12],[0,4,0,4,5,0,7,".",".",".",".",".",".","."]],[[".",".",".",".",".",".",".","_",".",".","_",".","."],[".",".",".",".",".",".",".","_",".",".","_",".","."],[".",".",".",".",".",".",".","_",".",".","_",".","."],[0,4,0,4,5,0,2,"_",0,2,"_",0,2]]],"numberofstrings":4,"notes":["G","D","A","D"],"capo":0,"stringnotes":["G2","D2","A1","D1"],"comments":["Stave 1:","Stave 2:","Stave 3:"],"timing":[["W","W","W","W","W","W","W","W","W","W","W","W","W","W"],["W","W","W","W","W","W","W",null,"W","W",null,"W","W"],["W","W","W","W","W",null,"W",null,"W",null,"W",null,"W"]],"timingvisible":false,"tabcounter":0,"totalstaves":2,"instrument":"4bass","selectedtuning":"4bass","version":"13"}

Member for

1 month 1 week
Submitted by CalEliteCoach on Sun, 2020-09-13 01:56