Sound will begin in 5 seconds

Olive STAVE 1 = VERSES, STAVE 2 = Chorus, Stave 3 = 2nd Half of songs (build up bit)

01234567891011121314151617181920212223
E
B
G
D
A
E
B
0 1 2 3 4 5 6 7 8 9 10 11 12 13 14 15 16 17 18 19 20 21 22 23
Song Science #1: How Pros Use 6 Chords to Write Hit Songs
(/) Slide Up  (\) Slide Down  (h) Hammer On  (p) Pull Off  (b) Bend (r) Release (v) Vibrato

Stave 1:

G|-----------------------------------------------------
D|-----------------------------------------------------
A|-------------8-8-8-8-8-8-5-------------8-8-8-8-8-8-5-
E|-8-8-8-8-8-8---------------8-8-8-8-8-8---------------

Stave 2:

G|--------------------------------
D|--------------------------15----
A|--------------------------------
E|-3-3-3-3-3-3-3-1----15-13----13-

Stave 3:

G|-------------------------------------------------
D|-------------------15----------------------15----
A|-------------------------------------------------
E|-8----3-1----15-13----13-8----3-1----15-13----13-

http://www.guitartabcreator.com
Guitar Tab Creator is intended to store guitar tab created through the tool. It currently does not support in-line text editing. Any text you place in here will be lost. If you need to comment on your tab, please use the "Tab Notes" section located below.