Sound will begin in 5 seconds

Friends STAVE 1 = Verses / Chorus (1st Half), Stave 2 = Chorus (2nd Half), Stave 3 = Pre Chorus

01234567891011121314151617181920212223
E
B
G
D
A
E
B
0 1 2 3 4 5 6 7 8 9 10 11 12 13 14 15 16 17 18 19 20 21 22 23
Song Science #1: How Pros Use 6 Chords to Write Hit Songs
(/) Slide Up  (\) Slide Down  (h) Hammer On  (p) Pull Off  (b) Bend (r) Release (v) Vibrato

Stave 1:

G|-------------------------------------
D|-------------------------------------
A|-7-7-7-7-7-7-6-4-2-2-2-4-2-----------
E|---------------------------2-2-2-4-4-

Stave 2:

G|-------------------------------------------------
D|-------4---4-------6---6-------9---9-------9---9-
A|-------------------------------------------------
E|-2-2-2---2---4-4-4---4---7-7-7---7---7-7-7---7---

Stave 3:

G|---------------------
D|---------------------
A|-7----7----7----7----
E|---------------------

http://www.guitartabcreator.com
Guitar Tab Creator is intended to store guitar tab created through the tool. It currently does not support in-line text editing. Any text you place in here will be lost. If you need to comment on your tab, please use the "Tab Notes" section located below.