Smoke on the Water

Chords

01234567891011121314151617181920212223
E
B
G
D
A
E
B
0 1 2 3 4 5 6 7 8 9 10 11 12 13 14 15 16 17 18 19 20 21 22 23
(/) Slide Up  (\) Slide Down  (h) Hammer On  (p) Pull Off  (b) Bend (r) Release (v) Vibrato

Intro Lick Repeat 6 times

E|--------------------------------------
B|--------------------------------------
G|--0--3--5--0--3--6--5--0--3--5--3--0--
D|--0--3--5--0--3--6--5--0--3--5--3--0--
A|--------------------------------------
E|--------------------------------------

Verse 1 Repeat 4 times

E|--------------------------------------------------------------------------------------------------------------------------
B|--------------------------------------------------------------------------------------------------------------------------
G|--------------------------------------------------------------------------------------------------------------------------
D|--5--5--5--5-----5--5--5--5-----5--5--5--5-----5--5--5--5-----5--5--5--5-----3--3--3--3-----5--5--5--5-----5--5--5--5-----
A|--5--5--5--5-----5--5--5--5-----5--5--5--5-----5--5--5--5-----5--5--5--5-----3--3--3--3-----5--5--5--5-----5--5--5--5-----
E|--3--3--3--3-----3--3--3--3-----3--3--3--3-----3--3--3--3-----3--3--3--3-----1--1--1--1-----3--3--3--3-----3--3--3--3-----

Chorus

E|----------------------------------------------------------------------------------------------------------------------------------
B|----------------------------------------------------------------------------------------------------------------------------------
G|----------------------------------------------------------------------------------------------------------------------------------
D|--10--10--10--10-----10--10--10--10-----6--6--6--6-----6--6--6--6-----5--5--5--5-----5--5--5--5-----5--5--5--5-----5--5--5--5-----
A|--10--10--10--10-----10--10--10--10-----6--6--6--6-----6--6--6--6-----5--5--5--5-----5--5--5--5-----5--5--5--5-----5--5--5--5-----
E|--8---8---8---8------8---8---8---8------4--4--4--4-----4--4--4--4-----3--3--3--3-----3--3--3--3-----3--3--3--3-----3--3--3--3-----



E|----------------------------------------------------------------------
B|----------------------------------------------------------------------
G|----------------------------------------------------------------------
D|--10--10--10--10-----10--10--10--10-----6--6--6--6-----6--6--6--6-----
A|--10--10--10--10-----10--10--10--10-----6--6--6--6-----6--6--6--6-----
E|--8---8---8---8------8---8---8---8------4--4--4--4-----4--4--4--4-----

Intro Repeat 2 times

E|--------------------------------------
B|--------------------------------------
G|--0--3--5--0--3--6--5--0--3--5--3--0--
D|--0--3--5--0--3--6--5--0--3--5--3--0--
A|--------------------------------------
E|--------------------------------------

Verse 2 Repeat 4 times 

E|--------------------------------------------------------------------------------------------------------------------------
B|--------------------------------------------------------------------------------------------------------------------------
G|--------------------------------------------------------------------------------------------------------------------------
D|--5--5--5--5-----5--5--5--5-----5--5--5--5-----5--5--5--5-----5--5--5--5-----3--3--3--3--------5--5--5-----5--5--5--5-----
A|--5--5--5--5-----5--5--5--5-----5--5--5--5-----5--5--5--5-----5--5--5--5-----3--3--3--3--------5--5--5-----5--5--5--5-----
E|--3--3--3--3-----3--3--3--3-----3--3--3--3-----3--3--3--3-----3--3--3--3-----1--1--1--1--------3--3--3-----3--3--3--3-----

Chorus 2

E|----------------------------------------------------------------------------------------------------------------------------------
B|----------------------------------------------------------------------------------------------------------------------------------
G|----------------------------------------------------------------------------------------------------------------------------------
D|--10--10--10--10-----10--10--10--10-----6--6--6--6-----6--6--6--6-----5--5--5--5-----5--5--5--5-----5--5--5--5-----5--5--5--5-----
A|--10--10--10--10-----10--10--10--10-----6--6--6--6-----6--6--6--6-----5--5--5--5-----5--5--5--5-----5--5--5--5-----5--5--5--5-----
E|--8---8---8---8------8---8---8---8------4--4--4--4-----4--4--4--4-----3--3--3--3-----3--3--3--3-----3--3--3--3-----3--3--3--3-----



E|----------------------------------------------------------------------
B|----------------------------------------------------------------------
G|----------------------------------------------------------------------
D|--10--10--10--10-----10--10--10--10-----6--6--6--6-----6--6--6--6-----
A|--10--10--10--10-----10--10--10--10-----6--6--6--6-----6--6--6--6-----
E|--8---8---8---8------8---8---8---8------4--4--4--4-----4--4--4--4-----

Intro Repeat 2 times

E|--------------------------------------
B|--------------------------------------
G|--0--3--5--0--3--6--5--0--3--5--3--0--
D|--0--3--5--0--3--6--5--0--3--5--3--0--
A|--------------------------------------
E|--------------------------------------

							http://www.guitartabcreator.com
Instruments
{"strings":[[[".",".",".",".",".",".",".",".",".",".",".","."],[".",".",".",".",".",".",".",".",".",".",".","."],[0,3,5,0,3,6,5,0,3,5,3,0],[0,3,5,0,3,6,5,0,3,5,3,0],[".",".",".",".",".",".",".",".",".",".",".","."],[".",".",".",".",".",".",".",".",".",".",".","."]],[[".",".",".",".",".",".",".",".",".",".",".",".",".",".",".",".",".",".",".",".",".",".",".",".",".",".",".",".",".",".",".",".",".",".",".",".",".",".",".","."],[".",".",".",".",".",".",".",".",".",".",".",".",".",".",".",".",".",".",".",".",".",".",".",".",".",".",".",".",".",".",".",".",".",".",".",".",".",".",".","."],[".",".",".",".",".",".",".",".",".",".",".",".",".",".",".",".",".",".",".",".",".",".",".",".",".",".",".",".",".",".",".",".",".",".",".",".",".",".",".","."],[5,5,5,5,".",5,5,5,5,".",5,5,5,5,".",5,5,5,5,".",5,5,5,5,".",3,3,3,3,".",5,5,5,5,".",5,5,5,5,"."],[5,5,5,5,".",5,5,5,5,".",5,5,5,5,".",5,5,5,5,".",5,5,5,5,".",3,3,3,3,".",5,5,5,5,".",5,5,5,5,"."],[3,3,3,3,".",3,3,3,3,".",3,3,3,3,".",3,3,3,3,".",3,3,3,3,".",1,1,1,1,".",3,3,3,3,".",3,3,3,3,"."]],[[".",".",".",".",".",".",".",".",".",".",".",".",".",".",".",".",".",".",".",".",".",".",".",".",".",".",".",".",".",".",".",".",".",".",".",".",".",".",".","."],[".",".",".",".",".",".",".",".",".",".",".",".",".",".",".",".",".",".",".",".",".",".",".",".",".",".",".",".",".",".",".",".",".",".",".",".",".",".",".","."],[".",".",".",".",".",".",".",".",".",".",".",".",".",".",".",".",".",".",".",".",".",".",".",".",".",".",".",".",".",".",".",".",".",".",".",".",".",".",".","."],[10,10,10,10,".",10,10,10,10,".",6,6,6,6,".",6,6,6,6,".",5,5,5,5,".",5,5,5,5,".",5,5,5,5,".",5,5,5,5,"."],[10,10,10,10,".",10,10,10,10,".",6,6,6,6,".",6,6,6,6,".",5,5,5,5,".",5,5,5,5,".",5,5,5,5,".",5,5,5,5,"."],[8,8,8,8,".",8,8,8,8,".",4,4,4,4,".",4,4,4,4,".",3,3,3,3,".",3,3,3,3,".",3,3,3,3,".",3,3,3,3,"."]],[[".",".",".",".",".",".",".",".",".",".",".",".",".",".",".",".",".",".",".","."],[".",".",".",".",".",".",".",".",".",".",".",".",".",".",".",".",".",".",".","."],[".",".",".",".",".",".",".",".",".",".",".",".",".",".",".",".",".",".",".","."],[10,10,10,10,".",10,10,10,10,".",6,6,6,6,".",6,6,6,6,"."],[10,10,10,10,".",10,10,10,10,".",6,6,6,6,".",6,6,6,6,"."],[8,8,8,8,".",8,8,8,8,".",4,4,4,4,".",4,4,4,4,"."]],[[".",".",".",".",".",".",".",".",".",".",".","."],[".",".",".",".",".",".",".",".",".",".",".","."],[0,3,5,0,3,6,5,0,3,5,3,0],[0,3,5,0,3,6,5,0,3,5,3,0],[".",".",".",".",".",".",".",".",".",".",".","."],[".",".",".",".",".",".",".",".",".",".",".","."]],[[".",".",".",".",".",".",".",".",".",".",".",".",".",".",".",".",".",".",".",".",".",".",".",".",".",".",".",".",".",".",".",".",".",".",".",".",".",".",".","."],[".",".",".",".",".",".",".",".",".",".",".",".",".",".",".",".",".",".",".",".",".",".",".",".",".",".",".",".",".",".",".",".",".",".",".",".",".",".",".","."],[".",".",".",".",".",".",".",".",".",".",".",".",".",".",".",".",".",".",".",".",".",".",".",".",".",".",".",".",".",".",".",".",".",".",".",".",".",".",".","."],[5,5,5,5,".",5,5,5,5,".",5,5,5,5,".",5,5,5,5,".",5,5,5,5,".",3,3,3,3,".",".",5,5,5,".",5,5,5,5,"."],[5,5,5,5,".",5,5,5,5,".",5,5,5,5,".",5,5,5,5,".",5,5,5,5,".",3,3,3,3,".",".",5,5,5,".",5,5,5,5,"."],[3,3,3,3,".",3,3,3,3,".",3,3,3,3,".",3,3,3,3,".",3,3,3,3,".",1,1,1,1,".",".",3,3,3,".",3,3,3,3,"."]],[[".",".",".",".",".",".",".",".",".",".",".",".",".",".",".",".",".",".",".",".",".",".",".",".",".",".",".",".",".",".",".",".",".",".",".",".",".",".",".","."],[".",".",".",".",".",".",".",".",".",".",".",".",".",".",".",".",".",".",".",".",".",".",".",".",".",".",".",".",".",".",".",".",".",".",".",".",".",".",".","."],[".",".",".",".",".",".",".",".",".",".",".",".",".",".",".",".",".",".",".",".",".",".",".",".",".",".",".",".",".",".",".",".",".",".",".",".",".",".",".","."],[10,10,10,10,".",10,10,10,10,".",6,6,6,6,".",6,6,6,6,".",5,5,5,5,".",5,5,5,5,".",5,5,5,5,".",5,5,5,5,"."],[10,10,10,10,".",10,10,10,10,".",6,6,6,6,".",6,6,6,6,".",5,5,5,5,".",5,5,5,5,".",5,5,5,5,".",5,5,5,5,"."],[8,8,8,8,".",8,8,8,8,".",4,4,4,4,".",4,4,4,4,".",3,3,3,3,".",3,3,3,3,".",3,3,3,3,".",3,3,3,3,"."]],[[".",".",".",".",".",".",".",".",".",".",".",".",".",".",".",".",".",".",".","."],[".",".",".",".",".",".",".",".",".",".",".",".",".",".",".",".",".",".",".","."],[".",".",".",".",".",".",".",".",".",".",".",".",".",".",".",".",".",".",".","."],[10,10,10,10,".",10,10,10,10,".",6,6,6,6,".",6,6,6,6,"."],[10,10,10,10,".",10,10,10,10,".",6,6,6,6,".",6,6,6,6,"."],[8,8,8,8,".",8,8,8,8,".",4,4,4,4,".",4,4,4,4,"."]],[[".",".",".",".",".",".",".",".",".",".",".","."],[".",".",".",".",".",".",".",".",".",".",".","."],[0,3,5,0,3,6,5,0,3,5,3,0],[0,3,5,0,3,6,5,0,3,5,3,0],[".",".",".",".",".",".",".",".",".",".",".","."],[".",".",".",".",".",".",".",".",".",".",".","."]]],"numberofstrings":6,"notes":["E","B","G","D","A","E","B"],"capo":0,"stringnotes":["E4","B3","G3","D3","A2","E2"],"comments":["Intro Lick Repeat 6 times","Verse 1 Repeat 4 times","Chorus","","Intro Repeat 2 times","Verse 2 Repeat 4 times ","Chorus 2","","Intro Repeat 2 times"],"timing":[["S","W","W","W","S","S","S","W","S","S","W","W","W"],["S","W","W","W","W","W","S","S","S","S","S","S","W","S","S",null,null,null,null,null,null,"W","W","W","W",null,null,"W","W","W","W","W",null,null,null,null,null,null,null,"W","W"],[null,"W","W","W","W",null,null,null,null,null,null,"W","W","W","W"],[],[],[],[],[],[]],"timingvisible":false,"tabcounter":12,"stave":8,"totalstaves":9,"instrument":"6guitar","selectedtuning":"6_standard","version":"13"}

Member for

1 week 4 days
Submitted by Calais Brown on Fri, 2020-11-20 16:23