I Was There - Solo - Super

Chords
01234567891011121314151617181920212223
E
B
G
D
A
E
B
0 1 2 3 4 5 6 7 8 9 10 11 12 13 14 15 16 17 18 19 20 21 22 23
(/) Slide Up  (\) Slide Down  (h) Hammer On  (p) Pull Off  (b) Bend (r) Release (v) Vibrato

Stave 1:

E|-------------------------------------------------
B|---------------------11--11--14--14--11--14--14--
G|---------8--8h10b11------------------------------
D|--6h8b9------------------------------------------
A|-------------------------------------------------
E|-------------------------------------------------

Stave 2:

E|-----------11--11--13b14/18--------------------------
B|--9h11b12--------------------11--14--14--11--14--14--
G|-----------------------------------------------------
D|-----------------------------------------------------
A|-----------------------------------------------------
E|-----------------------------------------------------

							http://www.guitartabcreator.com
Instruments
{"strings":[[[".",".",".",".",".",".",".",".",".",".",".",".",".",".",".",".",".","."],[".",".",".",".",".",".",".",".",".",".",".",11,11,14,14,11,14,14],[".",".",".",".",".",8,8,"h",10,"b",11,".",".",".",".",".",".","."],[6,"h",8,"b",9,".",".",".",".",".",".",".",".",".",".",".",".","."],[".",".",".",".",".",".",".",".",".",".",".",".",".",".",".",".",".","."],[".",".",".",".",".",".",".",".",".",".",".",".",".",".",".",".",".","."]],[[".",".",".",".",".",11,11,13,"b",14,"/",18,".",".",".",".",".","."],[9,"h",11,"b",12,".",".",".",".",".",".",".",11,14,14,11,14,14],[".",".",".",".",".",".",".",".",".",".",".",".",".",".",".",".",".","."],[".",".",".",".",".",".",".",".",".",".",".",".",".",".",".",".",".","."],[".",".",".",".",".",".",".",".",".",".",".",".",".",".",".",".",".","."],[".",".",".",".",".",".",".",".",".",".",".",".",".",".",".",".",".","."]]],"numberofstrings":6,"notes":["E","B","G","D","A","E","B"],"capo":0,"stringnotes":["E4","B3","G3","D3","A2","E2"],"comments":["Stave 1:","Stave 2:"],"timing":[["W",null,"W",null,"W","W","W",null,"W",null,"W","W","W","W","W","W","W","W"],["W",null,"W",null,"W","W","W","W",null,"W",null,"W","W","W","W","W","W","W"]],"timingvisible":false,"tabcounter":18,"stave":1,"totalstaves":2,"instrument":"6guitar","selectedtuning":"6_standard","version":"13"}

Member for

10 months 3 weeks
Submitted by Bytes on Thu, 2020-05-21 08:22