No2

Chords

01234567891011121314151617181920212223
E
B
G
D
A
E
B
0 1 2 3 4 5 6 7 8 9 10 11 12 13 14 15 16 17 18 19 20 21 22 23
(/) Slide Up  (\) Slide Down  (h) Hammer On  (p) Pull Off  (b) Bend (r) Release (v) Vibrato

Stave 1:

D |--------------------------------------------------------------
A |-----------------------------------------0-----3--2-----------
Gb|-----------3--------3-----3-----------0--------------3--2-----
D |--3--2--0--------5-----5-----------3--------------------------
A |--------------------------------2-----------------------------
D |--------------------------------------------------------------

Stave 2:

D |--------------------------------------------------------------
A |--------------------------------------------------------------
Gb|--------------------------------------------------------------
D |--------------------------------------------------------------
A |--0-----0--0--2--1-----1--1--1--0-----0--0--2--1--------------
D |--0-----0--0--2--1-----1--1--1--0-----0--0--2--1--------------

Stave 3:

D |--------------------------------------
A |--------------------------------------
Gb|--------------------------------------
D |--------------------------------------
A |--2--6--0--3--5--0--1--1--1--2--1--1--
D |--2--6--0--3--5--0--1--1--1--2--1--1--

							http://www.guitartabcreator.com
Instruments
{"strings":[[[".",".",".",".","_",".",".",".",".","_",".",".",".",".","_",".",".",".",".","_"],[".",".",".",".","_",".",".",".",".","_",".",".",".",0,"_",3,2,".",".","_"],[".",".",".",3,"_",".",3,".",3,"_",".",".",0,".","_",".",".",3,2,"_"],[3,2,0,".","_",5,".",5,".","_",".",3,".",".","_",".",".",".",".","_"],[".",".",".",".","_",".",".",".",".","_",2,".",".",".","_",".",".",".",".","_"],[".",".",".",".","_",".",".",".",".","_",".",".",".",".","_",".",".",".",".","_"]],[["_","_",".",".",".",".","_",".",".",".",".","_",".",".",".",".","_","_","_","_"],["_","_",".",".",".",".","_",".",".",".",".","_",".",".",".",".","_","_","_","_"],["_","_",".",".",".",".","_",".",".",".",".","_",".",".",".",".","_","_","_","_"],["_","_",".",".",".",".","_",".",".",".",".","_",".",".",".",".","_","_","_","_"],[0,"_",0,0,2,1,"_",1,1,1,0,"_",0,0,2,1,"_","_","_","_"],[0,"_",0,0,2,1,"_",1,1,1,0,"_",0,0,2,1,"_","_","_","_"]],[[".",".",".",".",".",".",".",".",".",".",".","."],[".",".",".",".",".",".",".",".",".",".",".","."],[".",".",".",".",".",".",".",".",".",".",".","."],[".",".",".",".",".",".",".",".",".",".",".","."],[2,6,0,3,5,0,1,1,1,2,1,1],[2,6,0,3,5,0,1,1,1,2,1,1]]],"numberofstrings":6,"notes":["D","A","FsGb","D","A","D"],"capo":0,"stringnotes":["D3","A2","Gb2","D2","A1","D1"],"comments":["Stave 1:","Stave 2:","Stave 3:"],"timing":[[null,null,null,null,null,null,null,null,null,null,"W","W","W","W",null,"W","W","W","W"],["W","W","W","W","W","W",null,"W","W","W","W",null,"W","W","W","W"],["W","W","W","W","W","W","W","W","W","W","W","W"]],"timingvisible":false,"tabcounter":11,"stave":2,"totalstaves":3,"instrument":"6guitar","selectedtuning":"Open D","version":"13"}

Member for

2 months 1 week
Submitted by Byacca on Thu, 2020-09-17 08:57