Sound will begin in 5 seconds

Tadhana

01234567891011121314151617181920212223
E
B
G
D
A
E
B
0 1 2 3 4 5 6 7 8 9 10 11 12 13 14 15 16 17 18 19 20 21 22 23
Song Science #1: How Pros Use 6 Chords to Write Hit Songs
(/) Slide Up  (\) Slide Down  (h) Hammer On  (p) Pull Off  (b) Bend (r) Release (v) Vibrato

Stave 1:

G|--------------------------------------------------------------------
D|--------------------------------------------------------------------
A|--2--------6--------2--------6--------2--------6--------2--------6--
E|--------------------------------------------------------------------

Stave 2:

G|-----------------------------------
D|-----------------------------------
A|--2--------6-----------------------
E|--------------------4--------------

Stave 3:

G|-----------------------------------------------------------------------
D|-----4--------6--------8-----------------4-----3--6--------------------
A|--2--------4--------6--------9--8-----2--------------------4-----6--4--
E|--------------------------------------------------------4--------------

Stave 4:

G|--------------------------------------------------
D|-----4--------6--------8--------6-----------------
A|--2--------4--------6--------9-----------------2--
E|--------------------------------------4-----------

Stave 5:

G|--------------------------------------------------------------------------------
D|--------------------------------------------------------------------------------
A|--2--2--------6--6--------4-----2--2--------6--6--------4-----2--2--------6--6--
E|--------------------------------------------------------------------------------

Stave 6:

G|-------------------------3--------6-----------------------3--------6--------8--------
D|----------------------------------------------6--------------------------------8--6--
A|----------------------2--------4--------6--9-----4-----2--------4--------6-----------
E|--9\4--------4-----------------------------------------------------------------------

Stave 7:

G|-----3--------6--------------------------------
D|--------------------------6--------------------
A|--2--------4--------6--9-----4-----------------
E|-----------------------------------4--------4--

Stave 8:

G|----------------------------------------------------------------------
D|-----4--------6--------8--------------4--------6--------8---------13--
A|--2--------4--------6-----9--8-----2--------4--------6--------11------
E|----------------------------------------------------------------------

Stave 9:

G|-----------------------------------------------
D|-----4-----3--6--------4--6--------------------
A|--2--------------------------4--------------2--
E|--------------------4--------------4-----------

Stave 10:

G|-----------------------------------------------------------------------------
D|-----------------------------------------------------------------------------
A|--2--2--------6--6-----4--2--2--------6--6-----4--2--2--------6--6-----------
E|--------------------------------------------------------------------------4--

Stave 11:

G|-----3--------6-----------------------3--------6--------8--------
D|--------------------------6--------------------------------6--8--
A|--2--------4--------6--9-----4-----2--------4--------6-----------
E|-----------------------------------------------------------------

Stave 12:

G|-----4--3-----------------------------------
D|-----------4-----------6--------------------
A|--2--------------6--9-----4-----2--------2--
E|--------------------------------------------

http://www.guitartabcreator.com
Guitar Tab Creator is intended to store guitar tab created through the tool. It currently does not support in-line text editing. Any text you place in here will be lost. If you need to comment on your tab, please use the "Tab Notes" section located below.