Sound will begin in 5 seconds

Starting Over Again Natalie

01234567891011121314151617181920212223
E
B
G
D
A
E
B
0 1 2 3 4 5 6 7 8 9 10 11 12 13 14 15 16 17 18 19 20 21 22 23
Song Science #1: How Pros Use 6 Chords to Write Hit Songs
(/) Slide Up  (\) Slide Down  (h) Hammer On  (p) Pull Off  (b) Bend (r) Release (v) Vibrato

Stave 1:

G|----------------------------------------------------------------------
D|----------------------------------------------------------------------
A|-----------8-----8--7--5--------7--------12--10--5--------------------
E|--8-------------------------------------------------------3-----3--3--

Stave 2:

G|-------------------------------------------------------------------------------
D|--------------------------6h8--------------------------------------------------
A|-------------------------------8--6--------6-----------------------1-----6-----
E|--8--------1--3--4--6-------------------------6--4--------4--1-----------------

Stave 3:

G|-------------------------------------------------------------------------
D|-------------------------------------------------------------------------
A|--6--5--3-----1--------------1--------1--1-----1--------6-----10-----11--
E|--------------------1-----1-----------------------3--1-------------------

Stave 4:

G|---------------------------------------------------------------
D|----------------8----------------------------------------------
A|--11--10--8-----------6-----6--5--3-----1--------------6h8-----
E|----------------------------------------------1-------------6--

Stave 5:

G|-------------------------------------------------------------------------
D|-------------------------------------------------------------------------
A|--6--------5--------------------------------3/5--------------------------
E|-----------------3-----8--------3--1-------------------3-----1-----------

Stave 6:

G|----------------------------------------------------------------
D|-----------------------------------------------------10---------
A|--------------5------------------------------------------10-----
E|--5-----3-----------------3--------3--3--------8-------------8--

Stave 7:

G|---------------------------------------------------------
D|---------------------------------------------8/10--------
A|--8--------8-----8--8--------8/10--10--------------------
E|---------------------------------------8-----------8--8--

Stave 8:

G|--------------------------------------------------------------
D|--------------------------------------------------------------
A|--5--3-----8-----8-----8--8--------8/10--10-------------------
E|--------5------------------------------------8-----10--10--8--

Stave 9:

G|-------------------------------------------------8-----------
D|--------------------------------------6p5--------------------
A|--6--6--6----------------------------------6-----------6--6--
E|-----------4-----4-----4--4--------4-------------------------

Stave 10:

G|------------------------------------------------------8-----------
D|-------------------------------------------6p5--------------------
A|--6/8-----8-------------------------------------6-----------6--6--
E|-------------6--4-----4-----4--4--------4-------------------------

Stave 11:

G|---------------------------------------------------------------
D|--5--6--------5-----9-----10-----8-----------------------------
A|---------------------------------------8--------8--------------
E|---------------------------------------------------6-----6--6--

Stave 12:

G|--------------------------------------------------------------------
D|--------------------------------------------------------------------
A|--------6-----6--4--------------------1--2--------1--------4--------
E|--8--6--------------------2--------2-----------------4-----------2--

Stave 13:

G|-------------------------------------------------------------------------------
D|-------------------------------------------------------------------------------
A|--9--8--6-----4--------------------4--------4/6\4--------4/6\4-----6--4--------
E|--------------------4-----4-----4--------4------------4------------------4--2--

Stave 14:

G|----------------------------------------------------------------------------
D|----------------------------------------------------------------------------
A|--1-----2--------1--------4-----------9--8--6-----4----------------------4--
E|--------------------4-----------2-----------------------4-----4-----6p4-----

Stave 15:

G|----------------------------------------------------------------------------
D|----------------------------------------------------------------------------
A|-----4/6\4--------4/6\4--------------------1--2--------2--1--------4--------
E|--4------------4------------6--4--2--------------------------4-----------2--

Stave 16:

G|------------------------------------------------------------------------------
D|------------------------------------------------------------------------------
A|--9--8--6-----4--------------4--------4/6\4--------------6--------------------
E|--------------------4-----4--------4---------------6--4-----------4--------4--

Stave 17:

G|-----
D|-----
A|--4--
E|-----

http://www.guitartabcreator.com
Guitar Tab Creator is intended to store guitar tab created through the tool. It currently does not support in-line text editing. Any text you place in here will be lost. If you need to comment on your tab, please use the "Tab Notes" section located below.