Sound will begin in 5 seconds

saving all my love for you

01234567891011121314151617181920212223
E
B
G
D
A
E
B
0 1 2 3 4 5 6 7 8 9 10 11 12 13 14 15 16 17 18 19 20 21 22 23
Song Science #1: How Pros Use 6 Chords to Write Hit Songs
(/) Slide Up  (\) Slide Down  (h) Hammer On  (p) Pull Off  (b) Bend (r) Release (v) Vibrato

Stave 1:

G|--9--------------------9--11-----------------------
D|-----7-----4-----9------------7-----4-----9--------
A|------------------------------------------------7--
E|---------------------------------------------------

Stave 2:

G|-----------------------------------------------------------
D|-----------------------------------------------------------
A|-----------------2-----2-----------------------2-----2-----
E|--5-----0--2--------------0-----5-----0--2--------------0--

Stave 3:

G|-----------------------------------------------------------------------
D|-----------4-----------------4-----------------------------------------
A|--------4--------4--------4--------4-----------------------------4-----
E|--2-----------------2-----------------5--4--2--0--4--------5--7--------

Stave 4:

G|-----------------------------
D|-----------------------------
A|--5--4-----4--2--------------
E|--------------------0-----5--

Stave 5:

G|-----------------------------------------------
D|-----------------------------------2-----------
A|-----------------2--------------------2--------
E|--5-----0--2-----------2--1--0-----------4--5--

Stave 6:

G|--------------------------------------------------------------
D|--------------------------------------------------------------
A|--------------2-----2-----------------------------2-----2-----
E|--4--0--2--------------0-----0--2--5-----0--2--------------0--

Stave 7:

G|-----------------------------------------------------------------------------------
D|--------------4--------------------4-----------------------------------------------
A|-----------4--------4-----------4-----------------------------7--5--4--------4--5--
E|--0--2-----------------5--2--------------5--4--2--0-----4-----------------5--------

Stave 8:

G|--------------------------------------------------------------------------------------
D|--------------------------------------------------------------------------------------
A|--5--4-----4--2--------------------12--14--12--------------7--5--4--------------------
E|--------------------0-----5-----5-----------------5--4-----------------0--2-----0--2--

Stave 9:

G|--------------------------------------------------------------8--------------
D|--------------4--3--2-----------------------7--9-----9--7--6--------9--7--6--
A|--0--1--2--------------------------------7-----------------------------------
E|--------------------------0--2--5-----5--------------------------------------

Stave 10:

G|-----6----------------------------------------------------------------
D|--6--------6------------------------------------------------14--------
A|--------------4--------------------2--2-----2-----------14------------
E|-----------------------2--2-----2--------------0-------------------0--

Stave 11:

G|---------------------------------------------------------------------------------------
D|--------------------------------2--------------------------------2/4--2--------2h4--2--
A|-----------------------2-----2----------------------------------------------4----------
E|--5-----0--1--2-----2-----------------0--2--0--5-----0--1--2---------------------------

Stave 12:

G|--------------------------------------------------------------
D|-----------------------4-----------------------------4--------
A|--------------------4--------4--------------------4--------4--
E|--0--1--2--2-----2--------2--------0--2--2-----2--------2-----

Stave 13:

G|----------------------------------------------------------------------------
D|-------------------------------6--------------------------------------------
A|----------------------------------7--5--4-----------4--5-----5--4-----4--2--
E|--4--4--4h5--4--2--0-----4--------------------0-----------------------------

Stave 14:

G|-----------------------------------------------------------------------
D|-----------------------------------------------------------------------
A|--2--4--5-----5--4-----4--2-----2--4--5-----5--4-----4--2--------------
E|--------------------------------------------------------------0-----5--

Stave 15:

G|-----------------------------------------------------------------------------
D|-----------------------------------------------------------------------------
A|-----------4--3--2-----2--------------------------------------2-----2--------
E|--0--2--------------------0-----0--2--0--5-----0--1--2-----2-----------2--0--

Stave 16:

G|-----------------------------------------------------------------
D|-----------------------4-----------------------------4-----------
A|--------------------4--------4--------------------4--------4-----
E|--0--1--2--2-----2--------2--------0--2--2-----2--------2--------

Stave 17:

G|--------------------------------------------------------------------------
D|-----------------------------------------6--------------------------------
A|-----------------------------------------------7--5--4--------------5-----
E|--4--5-----5--4-----2-----0--2--3--4-----------------------0-----0--------

Stave 18:

G|------------------------------------------------------------------------------------
D|------------------------------------------------------------------------------------
A|--4-----4--2-----2--4--5--5--4p0-----2/4--2-----2--4--5-----5--4-----4--2-----------
E|---------------------------------------------------------------------------2--1--0--

Stave 19:

G|---------------------------------------------------------------------------------
D|-------------------------------2-------------------------------------------------
A|-----------------2/4--2--------------------------------------2/4--2--------------
E|--5-----0--2----------------0--------0--2--5-----0--1--2----------------2--1--0--

http://www.guitartabcreator.com
Guitar Tab Creator is intended to store guitar tab created through the tool. It currently does not support in-line text editing. Any text you place in here will be lost. If you need to comment on your tab, please use the "Tab Notes" section located below.