Sound will begin in 5 seconds

Lost Stars

01234567891011121314151617181920212223
E
B
G
D
A
E
B
0 1 2 3 4 5 6 7 8 9 10 11 12 13 14 15 16 17 18 19 20 21 22 23
Song Science #1: How Pros Use 6 Chords to Write Hit Songs
(/) Slide Up  (\) Slide Down  (h) Hammer On  (p) Pull Off  (b) Bend (r) Release (v) Vibrato

Stave 1:

G|----------------------------------------------------------
D|--3-----------3-----------3-----2-----7--------------5/7--
A|--------3-----------3--------------------3--5-------------
E|----------------------------------------------------------

Stave 2:

G|----------------------------------------------------------------------------------
D|---------------------------------------------------------10/12\10-----------------
A|--------5--7--8--7--10--------8-----------8-----8--8------------------8-----8--8--
E|--5------------------------------------8------------------------------------------

Stave 3:

G|--------------------------------------------------------------------------
D|----------------------------------------------------------------10/12\10--
A|-----8-----8----------------8-----8--8--------8--8-----8--8---------------
E|--8--------------8/10\8--------------------8------------------------------

Stave 4:

G|------------------------------------------------------------------------------------------
D|------------------------------------------------------------------------------------------
A|--8--8--------8--------8---------------7-----7--7-----7--8-----8--8-----8--7--------7--7--
E|-----------8-----------------8-----10--------------------------------------------8--------

Stave 5:

G|-----------------------------------------------------------------------------
D|-----------------------------------------------------------------------------
A|--7--8-----8--8---------7-----7--7-----7--8-----8--8-----8--10-----10--------
E|-----------------8--10----------------------------------------------------3--

Stave 6:

G|--------------------------------------------------------------------------
D|--------------------------------------------------------------------------
A|--8-----8--8-----8--3--------3--3-----3--8-----8--8-----8--3--------3--3--
E|--------------------------3--------------------------------------3--------

Stave 7:

G|--------------------------------------------------------------------------
D|--------------------------------------------------------------------------
A|--3--8-----8--8-----8--7----------7-----7-------5-----5--5-----5-----/12--
E|-----------------------------5h8-----------8p5----------------------------

Stave 8:

G|------------------------------------------------------------------------------------------
D|------------------------------------------------------------------------------------------
A|--5--7--8--7--10-----10--10--10--10--10--10-----------------------3--------3--3-----------
E|------------------------------------------------1-----1--1-----1--------3--------3--3--1--

Stave 9:

G|------------------------------------------------------------------------------------------
D|------------------------------------------------------------------------------------------
A|--------------------3-----------------------------------------------3/7h8p7-----7-----10--
E|--0--1--1-----1--3--------0--1--1--3-----1-----0--1--1-----5--0--------------------8------

Stave 10:

G|------------------------------------------------------------------------------------
D|------------------------------------------------------------------------------------
A|--10--10--10--10--10----------------------------------------3--------3--3--3--------
E|--------------------\3--3--3--3--3--3--1-----0--1--1-----3--------3-----------3--1--

Stave 11:

G|-----------------------------------------------------------------------------------------
D|--------------------------------------------------------------------------5--------------
A|-----------------3--------3--3-----3--------------------------------3--5--------5--3--5--
E|--0--1--1-----3--------3--------------1-----0--1--1-----1--0--0--------------------------

Stave 12:

G|----------------------------------------------------------------------------------------------
D|----------------------------------------------------------------------------------------------
A|--5-----5--5--5--5-----5/12--12--12--12--12\5-----5--7--8--7--10--10--10--10--10--10--10--10--
E|--------------------5-------------------------------------------------------------------------

Stave 13:

G|------------------------------------------------------------------------------------------
D|------------------------------------------------------------------------------------------
A|-----------------------3--------3p0--3-----------------------------3-----3/7-----5--5--3--
E|--1-----0--1--1-----3--------3----------3--3--1-----0--1--1--1--3-------------------------

Stave 14:

G|------------------------------------------------------------------------------------------------------
D|------------------------------------------------------------------------------------------------------
A|--------------------------------------7-----7--5\3--5-----5--5--5--5--5--5--5/12--12--14--14--15--15--
E|--1-----0--1--1--1--3--0-----0--5--7------------------------------------------------------------------

Stave 15:

G|----------------------------------------------------------------------------------------
D|----------------------------------------------------------------------------------------
A|--14--14-----5--7--8--7--10--10--10--10--10--10--10-----5--------5--5-----5/12--15--17--
E|--------------------------------------------------------------5-------------------------

Stave 16:

G|------------------------------------------------------------------------------
D|------------------------------------------------------------------------------
A|--12--10--8-----5--7--8--7--10--10--10--10--10--10--10--10--------------------
E|------------------------------------------------------------3--3--3--3-----8--

http://www.guitartabcreator.com
Guitar Tab Creator is intended to store guitar tab created through the tool. It currently does not support in-line text editing. Any text you place in here will be lost. If you need to comment on your tab, please use the "Tab Notes" section located below.