Jambalaya D

01234567891011121314151617181920212223
E
B
G
D
A
E
B
0 1 2 3 4 5 6 7 8 9 10 11 12 13 14 15 16 17 18 19 20 21 22 23
(/) Slide Up  (\) Slide Down  (h) Hammer On  (p) Pull Off  (b) Bend (r) Release (v) Vibrato

Stave 1:

E|---------------------------------------------------------------------
B|---------------------------------------2--2--2-----------------------
G|-----2h4-----2h4--2-----2-----2--2--2-----------4--2--2--4--4--2-----
D|--4-------4----------4-----2--------------------------------------4--
A|---------------------------------------------------------------------
E|---------------------------------------------------------------------

Stave 2:

E|-------------------------------------------------------------------
B|---------------------------------------2--2--2---------------------
G|-----2h4-----2h4--2-----2-----2--2--2-----------4--2-------2-------
D|--4-------4----------4-----2--------------------------2/4-----4\0--
A|-------------------------------------------------------------------
E|-------------------------------------------------------------------

							http://www.guitartabcreator.com
Chords

Instruments
{"strings":[[[".",".",".",".",".",".",".",".",".",".",".",".",".",".",".",".",".",".",".",".",".",".",".",".","."],[".",".",".",".",".",".",".",".",".",".",".",".",".",".",".",2,2,2,".",".",".",".",".",".","."],[".",2,"h",4,".",2,"h",4,2,".",2,".",2,2,2,".",".",".",4,2,2,4,4,2,"."],[4,".",".",".",4,".",".",".",".",4,".",2,".",".",".",".",".",".",".",".",".",".",".",".",4],[".",".",".",".",".",".",".",".",".",".",".",".",".",".",".",".",".",".",".",".",".",".",".",".","."],[".",".",".",".",".",".",".",".",".",".",".",".",".",".",".",".",".",".",".",".",".",".",".",".","."]],[[".",".",".",".",".",".",".",".",".",".",".",".",".",".",".",".",".",".",".",".",".",".",".",".",".",".","."],[".",".",".",".",".",".",".",".",".",".",".",".",".",".",".",2,2,2,".",".",".",".",".",".",".",".","."],[".",2,"h",4,".",2,"h",4,2,".",2,".",2,2,2,".",".",".",4,2,".",".",".",2,".",".","."],[4,".",".",".",4,".",".",".",".",4,".",2,".",".",".",".",".",".",".",".",2,"/",4,".",4,"\\",0],[".",".",".",".",".",".",".",".",".",".",".",".",".",".",".",".",".",".",".",".",".",".",".",".",".",".","."],[".",".",".",".",".",".",".",".",".",".",".",".",".",".",".",".",".",".",".",".",".",".",".",".",".",".","."]]],"numberofstrings":6,"notes":["E","B","G","D","A","E","B"],"capo":0,"stringnotes":["E4","B3","G3","D3","A2","E2"],"comments":["Stave 1:","Stave 2:"],"timing":[["W","W",null,"W","W","W",null,"W","W","W","W","W","W","W","W","W","W","W","W","W","W","W","W","W","W"],["W","W",null,"W","W","W",null,"W","W","W","W","W","W","W","W","W","W","W","W","W","W",null,"W","W","W",null,"W"]],"timingvisible":false,"tabcounter":27,"stave":1,"totalstaves":2,"instrument":"6guitar","selectedtuning":"6_standard","version":"13"}

Member for

3 months 3 weeks
Submitted by burn1myr on Tue, 2020-11-24 13:54