Odiame

Chords

01234567891011121314151617181920212223
E
B
G
D
A
E
B
0 1 2 3 4 5 6 7 8 9 10 11 12 13 14 15 16 17 18 19 20 21 22 23
(/) Slide Up  (\) Slide Down  (h) Hammer On  (p) Pull Off  (b) Bend (r) Release (v) Vibrato

Stave 1:

A|-----4--7-----4--7-----4--7p4-----4--7p4-----4--7p4-----4--4/5-----5--8-----5--8p5-----5--8p5-----5--8p5--
E|--5--------5--------5----------5----------5----------5----------6--------6----------6----------6----------
C|----------------------------------------------------------------------------------------------------------
G|----------------------------------------------------------------------------------------------------------
D|----------------------------------------------------------------------------------------------------------
A|----------------------------------------------------------------------------------------------------------

Stave 2:

A|-----4--7p4-----4--4/5-----5--8--8--8p5-----5--8p5--
E|--5----------5----------6----------------6-----6----
C|----------------------------------------------------
G|----------------------------------------------------
D|----------------------------------------------------
A|----------------------------------------------------

							http://www.guitartabcreator.com
Instruments
{"strings":[[[".",4,7,".",4,7,".",4,7,"p",4,".",4,7,"p",4,".",4,7,"p",4,".",4,4,"/",5,".",5,8,".",5,8,"p",5,".",5,8,"p",5,".",5,8,"p",5],[5,".",".",5,".",".",5,".",".",".",".",5,".",".",".",".",5,".",".",".",".",5,".",".",".",".",6,".",".",6,".",".",".",".",6,".",".",".",".",6,".",".",".","."],[".",".",".",".",".",".",".",".",".",".",".",".",".",".",".",".",".",".",".",".",".",".",".",".",".",".",".",".",".",".",".",".",".",".",".",".",".",".",".",".",".",".",".","."],[".",".",".",".",".",".",".",".",".",".",".",".",".",".",".",".",".",".",".",".",".",".",".",".",".",".",".",".",".",".",".",".",".",".",".",".",".",".",".",".",".",".",".","."],[".",".",".",".",".",".",".",".",".",".",".",".",".",".",".",".",".",".",".",".",".",".",".",".",".",".",".",".",".",".",".",".",".",".",".",".",".",".",".",".",".",".",".","."],[".",".",".",".",".",".",".",".",".",".",".",".",".",".",".",".",".",".",".",".",".",".",".",".",".",".",".",".",".",".",".",".",".",".",".",".",".",".",".",".",".",".",".","."]],[[".",4,7,"p",4,".",4,4,"/",5,".",5,8,8,8,"p",5,".",5,8,"p",5],[5,".",".",".",".",5,".",".",".",".",6,".",".",".",".",".",".",6,".",6,".","."],[".",".",".",".",".",".",".",".",".",".",".",".",".",".",".",".",".",".",".",".",".","."],[".",".",".",".",".",".",".",".",".",".",".",".",".",".",".",".",".",".",".",".",".","."],[".",".",".",".",".",".",".",".",".",".",".",".",".",".",".",".",".",".",".",".",".","."],[".",".",".",".",".",".",".",".",".",".",".",".",".",".",".",".",".",".",".",".",".","."]]],"numberofstrings":6,"notes":["A","E","C","G","D","A","B"],"capo":0,"stringnotes":["A0","E1","C1","G1","D1","A1"],"comments":["Stave 1:","Stave 2:"],"timing":[["W","W","W","W","W","W","W","W","W",null,"W","W","W","W",null,"W","W","W","W",null,"W","W","W","W","W","W","W","W","W","W","W","W",null,"W","W","W","W",null,"W","W","W","W",null,"W"],["W","W","W",null,"W","W","W","W",null,"W","W","W","W","W","W","W","W","W","W","W",null,"W","W"]],"timingvisible":false,"tabcounter":21,"stave":1,"totalstaves":2,"instrument":"6guitar","selectedtuning":"6_standard","version":"13"}

Member for

2 months 3 weeks
Submitted by burbuja2794. on Wed, 2020-09-23 18:49