EL TRANSPORTE PARTE 1

Chords

01234567891011121314151617181920212223
E
B
G
D
A
E
B
0 1 2 3 4 5 6 7 8 9 10 11 12 13 14 15 16 17 18 19 20 21 22 23
(/) Slide Up  (\) Slide Down  (h) Hammer On  (p) Pull Off  (b) Bend (r) Release (v) Vibrato

Stave 1:

A|-----------------
E|-----------------
C|-----------------
G|-----------------
D|--0--0--------0--
A|--------0--3-----

Stave 2:

A|-----------------------------
E|-----------------------------
C|-----------------------------
G|-----------------------------
D|--0-----0--3--3-----0--3--3--
A|-----1-----------1-----------

Stave 3:

A|--------------------------
E|--------------------------
C|--------------------------
G|--------------------------
D|--0--2--3--3-----0--3--3--
A|--------------3-----------

Stave 4:

A|--------------
E|--------------
C|--------------
G|--------------
D|-----3--2--0--
A|--3-----------

Stave 5:

A|--------------------------
E|--------------------------
C|--------------------------
G|--------------------------
D|-----0-----------0--3-----
A|--0-----3--1--1--------1--

Stave 6:

A|--------------
E|--------------
C|--------------
G|--0-----0-----
D|-----3-----3--
A|--------------

							http://www.guitartabcreator.com
Instruments
{"strings":[[[".",".",".",".","."],[".",".",".",".","."],[".",".",".",".","."],[".",".",".",".","."],[0,0,".",".",0],[".",".",0,3,"."]],[[".",".",".",".",".",".",".",".","."],[".",".",".",".",".",".",".",".","."],[".",".",".",".",".",".",".",".","."],[".",".",".",".",".",".",".",".","."],[0,".",0,3,3,".",0,3,3],[".",1,".",".",".",1,".",".","."]],[[".",".",".",".",".",".",".","."],[".",".",".",".",".",".",".","."],[".",".",".",".",".",".",".","."],[".",".",".",".",".",".",".","."],[0,2,3,3,".",0,3,3],[".",".",".",".",3,".",".","."]],[[".",".",".","."],[".",".",".","."],[".",".",".","."],[".",".",".","."],[".",3,2,0],[3,".",".","."]],[[".",".",".",".",".",".",".","."],[".",".",".",".",".",".",".","."],[".",".",".",".",".",".",".","."],[".",".",".",".",".",".",".","."],[".",0,".",".",".",0,3,"."],[0,".",3,1,1,".",".",1]],[[".",".",".","."],[".",".",".","."],[".",".",".","."],[0,".",0,"."],[".",3,".",3],[".",".",".","."]]],"numberofstrings":6,"notes":["A","E","C","G","D","A","B"],"capo":0,"stringnotes":["A0","E1","C1","G1","D2","A0"],"comments":["Stave 1:","Stave 2:","Stave 3:","Stave 4:","Stave 5:","Stave 6:"],"timing":[["W","W","W","W","W"],["W","W","W","W","W","W","W","W","W"],["W","W","W","W","W","W","W","W"],["W","W","W","W"],["W","W","W","W","W","W","W","W"],["W","W","W","W"]],"timingvisible":false,"tabcounter":4,"stave":5,"totalstaves":6,"instrument":"6guitar","selectedtuning":"6_standard","version":"13"}

Member for

1 month 1 week
Submitted by burbuja2794. on Thu, 2020-10-15 11:52