EL TRANSPORTE

Chords

01234567891011121314151617181920212223
E
B
G
D
A
E
B
0 1 2 3 4 5 6 7 8 9 10 11 12 13 14 15 16 17 18 19 20 21 22 23
(/) Slide Up  (\) Slide Down  (h) Hammer On  (p) Pull Off  (b) Bend (r) Release (v) Vibrato

Stave 1:

A|--7--9--7--9--7--9--7--------7--9--7-----7--9--7--9--7--9--2--------2--------2-----2--------2--
E|--8--8--8--8--8--8--8--------8--8--8-----8--8--8--8--8--8--3--------3--------3-----3--------3--
C|--------------------------------------------------------------------------4--------------4-----
G|-----------------------------------------------------------------4-----4--------4-----4--------
D|-----------------------------------------------------------------------------------------------
A|-----------------------------------------------------------------------------------------------

Stave 2:

A|-----2--------2---------------------------2--------------------------
E|-----3-----------5--2h5p2--------------2-----5--2-----3-----2-----0--
C|-----------3---------------3--------3--------------------------------
G|--4-----4---------------------4--4-----------------4-----2-----0-----
D|---------------------------------------------------------------------
A|---------------------------------------------------------------------

							http://www.guitartabcreator.com
Instruments
{"strings":[[[7,9,7,9,7,9,7,"_","_",7,9,7,"_",7,9,7,9,7,9,2,"_",".",2,".",".",2,".",2,".",".",2],[8,8,8,8,8,8,8,"_","_",8,8,8,"_",8,8,8,8,8,8,3,"_",".",3,".",".",3,".",3,".",".",3],[".",".",".",".",".",".",".","_","_",".",".",".","_",".",".",".",".",".",".",".","_",".",".",".",4,".",".",".",".",4,"."],[".",".",".",".",".",".",".","_","_",".",".",".","_",".",".",".",".",".",".",".","_",4,".",4,".",".",4,".",4,".","."],[".",".",".",".",".",".",".","_","_",".",".",".","_",".",".",".",".",".",".",".","_",".",".",".",".",".",".",".",".",".","."],[".",".",".",".",".",".",".","_","_",".",".",".","_",".",".",".",".",".",".",".","_",".",".",".",".",".",".",".",".",".","."]],[[".",2,".",".",2,".",".",".",".",".",".",".",".",".",".",".",2,".",".",".",".",".",".",".","."],[".",3,".",".",".",5,2,"h",5,"p",2,".",".",".",".",2,".",5,2,".",3,".",2,".",0],[".",".",".",3,".",".",".",".",".",".",".",3,".",".",3,".",".",".",".",".",".",".",".",".","."],[4,".",4,".",".",".",".",".",".",".",".",".",4,4,".",".",".",".",".",4,".",2,".",0,"."],[".",".",".",".",".",".",".",".",".",".",".",".",".",".",".",".",".",".",".",".",".",".",".",".","."],[".",".",".",".",".",".",".",".",".",".",".",".",".",".",".",".",".",".",".",".",".",".",".",".","."]]],"numberofstrings":6,"notes":["A","E","C","G","D","A","B"],"capo":0,"stringnotes":["A0","E1","C1","G1","D1","A0"],"comments":["Stave 1:","Stave 2:"],"timing":[["W","W","W","W","W","W","W","W","W","W","W","W","W","W","W","W","W","W","W","W",null,"W","W","W","W","W","W","W","W","W","W","W"],["W","W","W","W","W","W","W","W","W","W","W","W","W","W","W","W","W","W","W","W","W","W","W","W","W"]],"timingvisible":false,"tabcounter":25,"stave":1,"totalstaves":2,"instrument":"6guitar","selectedtuning":"6_standard","version":"13"}

Member for

1 month 2 weeks
Submitted by burbuja2794. on Thu, 2020-10-15 11:13