Sound will begin in 5 seconds

Feef Eem

Chords
01234567891011121314151617181920212223
E
B
G
D
A
E
B
0 1 2 3 4 5 6 7 8 9 10 11 12 13 14 15 16 17 18 19 20 21 22 23
Song Science #1: How Pros Use 6 Chords to Write Hit Songs
(/) Slide Up  (\) Slide Down  (h) Hammer On  (p) Pull Off  (b) Bend (r) Release (v) Vibrato

Stave 1:

E|--2--0--5--2--0--5--2--0--------------------------------2--------------------------------
B|--------------------------3--2--3--0-----------0--2--3-----0--2--3--3--------------------
G|-----------------------------------------0--2--------------------------------------------
D|-----------------------------------------------------------------------------------------
A|--4--------3--------2-----------------------------------0-----------3--------------------
E|-----------------------4-----3-----2-----1-----0-----2-----3-----------------------------

Stave 2:

E|-----------------------------------------------------------------------------------------
B|--------2--3--------2--3--------2--3--------2--3--------2--3--------2--3-----------0-----
G|--------------------------------------------------------------------------------2--------
D|-----4-----------4-----------4-----------4-----------4-----------2-----------0-----------
A|--2-----------2-----------2-----------2-----------2-----------0--------------------------
E|--------------------------------------------------------------------------3--------------

Stave 3:

E|-------------------------------------------------------------------------------------------
B|----------------------------------------------------0-----0--2-----------------2--3--------
G|-----------------------0-----------1/2-----------2-----------------------------------------
D|--------2-----------4-------------------------0-----------------------------4-----------2--
A|--0--------------2--------------4----------------------------------------2-----------0-----
E|-----2--------0--------------2-------------3--------------2--------------------------------

Stave 4:

E|-------------------------------------------------------------------------0--2--7--7-----
B|--2--3-----------0----------------------------------------------------0-----------4-----
G|--------------2-----------------------------0-----------1/2-----------------------------
D|-----------0-----------------2-----------4-------------------------4--------------------
A|-----------------------0--------------2--------------4----------2-----------------------
E|--------3-----------------2--------0--------------2-------------------------------------

Stave 5:

E|--3--4-----2--4-----3--2--0--2--3--2-----4--4--2--0--4--2--0--5--4--|--4--2--1--0--2--4--5--
B|--3--4-----4--5-----5--3--0--2--3--2-----4--5--4--2--4--2--0--5--4--|--5--4--2--2--2--4--5--
G|--4--4-----4--6-----5--4--0--2--4--3-----5--6--4--2--4--2--1--6--5--|--6--4--3--2--2--4--6--
D|--5--6-----4--6-----5--4--2--4--5--4-----6--6--4--2--6--4--2--7--6--|--6--4--3--2--4--6--7--
A|--5--6-----2--4-----3--2--2--4--5--4-----6--4--2--0--6--4--2--7--6--|--4--2--1--0--4--6--7--
E|--3--4-----2--4-----3--2--0--2--3--2-----4--4--2--0--4--2--0--5--4--|--4--2--1--0--2--4--5--

http://www.guitartabcreator.com
Guitar Tab Creator is intended to store guitar tab created through the tool. It currently does not support in-line text editing. Any text you place in here will be lost. If you need to comment on your tab, please use the "Tab Notes" section located below.