Sound will begin in 5 seconds

"Aud Pro 3"

Chords
01234567891011121314151617181920212223
E
B
G
D
A
E
B
0 1 2 3 4 5 6 7 8 9 10 11 12 13 14 15 16 17 18 19 20 21 22 23
Song Science #1: How Pros Use 6 Chords to Write Hit Songs
(/) Slide Up  (\) Slide Down  (h) Hammer On  (p) Pull Off  (b) Bend (r) Release (v) Vibrato

Stave 1:

E|---------------------------------------------------|-------------------------------------------------
B|---------------------------------------------------|-------------------------------------------------
G|---------------------------------------------------|-------------------------------------------------
D|--5h7-------9------9------4--------4h5--5p4--2-----|--5h7-------9------9------4--------4h5-----4--2--
A|--7----7----10-----10-----5-----5--5----5----3-----|--7----7----10-----10-----5-----5--5----5-----3--
E|---------------------------------------------------|-------------------------------------------------

Stave 2:

E|--------------------------------------------------|--------------------------------------------------
B|--------------------------------------------------|--------------------------------------------------
G|--------------------------------------------------|--------------------------------------------------
D|--5h7-------9------9------4--------4h5--5p4--2--|--5h7-------9------9------5-----5-----4-----------
A|--7----7----10-----10-----5-----5--5----5----3--|--7----7----10-----10-----7-----7-----5-----------
E|--------------------------------------------------|--------------------------------------------------

Stave 3:

E|----------------------------------------------------|------------------------------------------------
B|----------------------------------------------------|------------------------------------------------
G|-----------------------------5----------------------|--------------------7--7--7-9-5-----------------
D|--2--2-----5--5-----0--0-----5----------0h5p0-------|--2--2-----5--5---------------------0h5p0-------
A|--2--2-----5--5-----0--0-----3-----0h3---------3\2--|--2--2-----5--5-----5--5--5-7-3----------h3-----
E|--0--0-----3--3-------------------------------------|--0--0-----3--3---------------------------------

Stave 4:

E|----------------------------------------------------|-----------------------------------------------
B|----------------------------------------------------|-----------------------------------------------
G|-----------------------------5----------------------|-----------------------------------------------
D|--2--2-----5--5-----0--0-----5----------0h5p0-------|--2--2-----5--5-----4--------------------------
A|--2--2-----5--5-----0--0-----3-----0h3---------3\2--|--2--2-----5--5-----5--------------------------
E|--0--0-----3--3-------------------------------------|--0--0-----3--3-----2--------------------------

Stave 5:

E|------------------------------------------------------------------------------------------------------
B|------------------------------------------------------------------------------------------------------
G|------------------------------------------------------------------------------------------------------
D|--------2-----5p2--------------5----------5---------------4-----5p4--------------5-----------4--------
A|-----2-----2-------2--------3-----3--3h5-----3---------5-----5-------5--------5-----------5-----5-----
E|--0-------------------3-------------------------3\2-------------------3-----------2-----------------

Stave 6:

E|----------------------------------------------------------------------------------------------------
B|----------------------------------------------------------------------------------------------------
G|----------------------------------------------------------------------------------------------------
D|--------2-----5p2--------------5----------5--------4--------4--4h5p4-----5--5-----4--------4--5-----
A|-----2-----2-------2--------3-----3--3h5-----3-----5-----5------------5--5--5--5--5-----5-----------
E|--0-------------------3----------------------------2--2------------------3--3-----2--2--------------

Stave 7:

E|-----------------------------------------------------|-----------------------------------------------
B|-----------------------------------------------------|-----------------------------------------------
G|-----------------------------------------------------|-----------------------------------------------
D|--5-----------4-----------4--4-----------------------|--2-----------2--5--------4--------2-----------
A|--2-----------2-----------2--0--5--------5--5--------|--2--------2-----2--------2-----2--2-----------
E|--------------------------------3--------3--2--------|--0-----0--------------0-----------0-----------

Stave 8:

E|-----------------------------------------------------|--
B|-----------------------------------------------------|--
G|-----------------------------------------------------|--
D|--5-----------5--7-----7-----5-----5-----4-----------|--
A|--5--------5-----5-----5-----5-----5-----5-----------|--
E|--3-----3--------3-----3-----3-----3-----2-----------|--

Stave 9:

E|--------------------------------------------------------------------------------------------------------
B|--------------------------------------------------------------------------------------------------------
G|--------------------------------------------------------------------------------------------------------
D|--5-----5--------5--5------------7---------------------------9--------9-2-----2----4--4--4--4--5--------
A|--5-----5-----5--5--5--5-7-----7--------7--7--7--4-9-----9-----9--9-2-----2--2-5--5--5--5--5--------
E|--3-----3-----3-----3--3-5-----5--------5--5--5--2-7-----7-----7--7-0--------0h2-----2--------------

Stave 10:

E|-----------------------------------------------------------------------------------------------------------------
B|-----------------------------------------------------------------------------------------------------------------
G|-----------------------------------------------------------------------------------------------------------------
D|--5-----5--------5-----4-----4-7--------7-2-----2--------2----12-----12--12--12--12--11--11--11--11--7--7--7--7--
A|--5-----5--------5--5--5-----5------------2-----2--------2--2----------------------------------------------------
E|--3-----3-----3-----3--2-----2-5-----5--5-0-----0-----0--0--0/10-----10--10--10--10--9---9---9---9---5--5--5--5--

http://www.guitartabcreator.com
Guitar Tab Creator is intended to store guitar tab created through the tool. It currently does not support in-line text editing. Any text you place in here will be lost. If you need to comment on your tab, please use the "Tab Notes" section located below.