Sound will begin in 5 seconds

Memory 2

01234567891011121314151617181920212223
E
B
G
D
A
E
B
0 1 2 3 4 5 6 7 8 9 10 11 12 13 14 15 16 17 18 19 20 21 22 23
Song Science #1: How Pros Use 6 Chords to Write Hit Songs
(/) Slide Up  (\) Slide Down  (h) Hammer On  (p) Pull Off  (b) Bend (r) Release (v) Vibrato

Stave 1:

E|---------------------------------------------------------------------
B|-----------------------------------------21--20--20--20--16--16--16--
G|--17--15--15--13--13-----/20-----\17---------------------------------
D|---------------------------------------------------------------------
A|---------------------------------------------------------------------
E|---------------------------------------------------------------------

Stave 2:

E|--------------------------16------------18b20v--20r18-----------------16--18--21b23--
B|--16h18--14h16-----14h16------16h18p16-----------------18--16h18--18-----------------
G|-------------------------------------------------------------------------------------
D|-------------------------------------------------------------------------------------
A|-------------------------------------------------------------------------------------
E|-------------------------------------------------------------------------------------

Stave 3:

E|--23--23r21--20--18h20--16--16h18-------------------15h16--15----------------------------
B|-----------------------------------16h18-----16h18-------------16--16h18-----------------
G|--------------------------------------------------------------------------15h17--15--13--
D|-----------------------------------------------------------------------------------------
A|-----------------------------------------------------------------------------------------
E|-----------------------------------------------------------------------------------------

Stave 4:

E|------------------------------------
B|--16--14--13-----/16--16/18---------
G|-----------------------------15--13\
D|------------------------------------
A|------------------------------------
E|------------------------------------

Stave 5:

E|--
B|--
G|--
D|--
A|--
E|--

http://www.guitartabcreator.com
Guitar Tab Creator is intended to store guitar tab created through the tool. It currently does not support in-line text editing. Any text you place in here will be lost. If you need to comment on your tab, please use the "Tab Notes" section located below.