Sound will begin in 5 seconds

lead guitar continued

Chords
01234567891011121314151617181920212223
E
B
G
D
A
E
B
0 1 2 3 4 5 6 7 8 9 10 11 12 13 14 15 16 17 18 19 20 21 22 23
Song Science #1: How Pros Use 6 Chords to Write Hit Songs
(/) Slide Up  (\) Slide Down  (h) Hammer On  (p) Pull Off  (b) Bend (r) Release (v) Vibrato

Capo Fret 5

Stave 1:

E|-3p0-3p0-1p0-5-0-|-0-------0-0------h3-3h5-5p3-3p1p0---0-0-0-------------------
B|-----------------|---1---1-----1---1-----------------1-1-1-0-----------0-------
G|-----------------|-----2---------0---------------------2-2-0-------0h2---------
D|-----------------|-------------------------------------3-2-2-0h2-3-------2-2-2-
A|-----------------|-------------------------------------0-0-2-------------3-----
E|-----------------|-------------------------------------0-0-0-------------------

Stave 2:

E|-----------0------------------------------|-----------------0-
B|-----0-1-3--------------------------------|-----1---------0-1-
G|-0h2---------0h2--------------------------|-0h2---2---0h2---2-
D|-----------------3-3-3p2---------0-2p0h2v-|---------2-------3-
A|-------------------------3-3p2h3----------|-----------------0-
E|------------------------------------------|-----------------0-

http://www.guitartabcreator.com
Guitar Tab Creator is intended to store guitar tab created through the tool. It currently does not support in-line text editing. Any text you place in here will be lost. If you need to comment on your tab, please use the "Tab Notes" section located below.