WIP 1

01234567891011121314151617181920212223
E
B
G
D
A
E
B
0 1 2 3 4 5 6 7 8 9 10 11 12 13 14 15 16 17 18 19 20 21 22 23
(/) Slide Up  (\) Slide Down  (h) Hammer On  (p) Pull Off  (b) Bend (r) Release (v) Vibrato

Stave 1:

E|--------------------------------------------------------------------------------------------------
B|--------9--7--------9--7--------9--7--------9--7--------7--5--------7--5--------7--5--------7--5--
G|-----7-----------7-----------7-----------7-----------6-----------6-----------6-----------6--------
D|--9-----------9-----------9-----------9-----------7-----------7-----------7-----------7-----------
A|--------------------------------------------------------------------------------------------------
E|--------------------------------------------------------------------------------------------------

Stave 2:

E|-----------------------------------------------------------------------------------------------------
B|--------9--7--------9--7--------9--7--9--9/10--9--7--------7--5--------7--5--------7--5--------7--5--
G|-----7-----------7-----------7--------------------------6-----------6-----------6-----------6--------
D|--9-----------9-----------9--------------------------7-----------7-----------7-----------7-----------
A|-----------------------------------------------------------------------------------------------------
E|-----------------------------------------------------------------------------------------------------

Stave 3:

E|----------------------------------------------------------------------------------------------------
B|--------9--7--------9--7--------9--7--------9--7--------7--5--------7--5--------7--5--7--7/9--7--5--
G|-----7-----------7-----------7-----------7-----------6-----------6-----------6----------------------
D|--9-----------9-----------9-----------9-----------7-----------7-----------7-------------------------
A|----------------------------------------------------------------------------------------------------
E|----------------------------------------------------------------------------------------------------

Stave 4:

E|-------------------------------------------------------------------------------------
B|--7-----7--7--7--7--7--------7--7--7--7--10-----10--10--10--10--9-----9--9--9--9-----
G|--7-----7--7--7--7--7--------7--7--7--7--7------7---7---7---7---7-----7--7--7--7-----
D|--9-----9--9--9--9--9--------9--9--9--9--9------9---9---9---9---9-----9--9--9--9-----
A|-------------------------------------------------------------------------------------
E|-------------------------------------------------------------------------------------

Stave 5:

E|--------------------------------------------------------------------------
B|--5-----5--5--5--5--5-----5--5--5--5--7-----7--7--7--7--5-----5--5--5--5--
G|--6-----6--6--6--6--6-----6--6--6--6--6-----6--6--6--6--6-----6--6--6--6--
D|--7-----7--7--7--7--7-----7--7--7--7--7-----7--7--7--7--7-----7--7--7--7--
A|--------------------------------------------------------------------------
E|--------------------------------------------------------------------------

Stave 6:

E|-------------------------------------------------------------------------------
B|--7-----7--7--7--7--7-----7--7--7--7--10-----10--10--10--10--9-----9--9--9--9--
G|--7-----7--7--7--7--7-----7--7--7--7--7------7---7---7---7---7-----7--7--7--7--
D|--9-----9--9--9--9--9-----9--9--9--9--9------9---9---9---9---9-----9--9--9--9--
A|-------------------------------------------------------------------------------
E|-------------------------------------------------------------------------------

Stave 7:

E|--------------------------------------------------------------------------
B|--5-----5--5--5--5--5-----5--5--5--5--9-----9--9--9--9--7-----7--7--7--7--
G|--6-----6--6--6--6--6-----6--6--6--6--6-----6--6--6--6--6-----6--6--6--6--
D|--7-----7--7--7--7--7-----7--7--7--7--7-----7--7--7--7--7-----7--7--7--7--
A|--------------------------------------------------------------------------
E|--------------------------------------------------------------------------

							http://www.guitartabcreator.com
Chords

Instruments
{"strings":[[[".",".",".",".",".",".",".",".",".",".",".",".",".",".",".",".",".",".",".",".",".",".",".",".",".",".",".",".",".",".",".","."],[".",".",9,7,".",".",9,7,".",".",9,7,".",".",9,7,".",".",7,5,".",".",7,5,".",".",7,5,".",".",7,5],[".",7,".",".",".",7,".",".",".",7,".",".",".",7,".",".",".",6,".",".",".",6,".",".",".",6,".",".",".",6,".","."],[9,".",".",".",9,".",".",".",9,".",".",".",9,".",".",".",7,".",".",".",7,".",".",".",7,".",".",".",7,".",".","."],[".",".",".",".",".",".",".",".",".",".",".",".",".",".",".",".",".",".",".",".",".",".",".",".",".",".",".",".",".",".",".","."],[".",".",".",".",".",".",".",".",".",".",".",".",".",".",".",".",".",".",".",".",".",".",".",".",".",".",".",".",".",".",".","."]],[[".",".",".",".",".",".",".",".",".",".",".",".",".",".",".",".",".",".",".",".",".",".",".",".",".",".",".",".",".",".",".",".",".","."],[".",".",9,7,".",".",9,7,".",".",9,7,9,9,"/",10,9,7,".",".",7,5,".",".",7,5,".",".",7,5,".",".",7,5],[".",7,".",".",".",7,".",".",".",7,".",".",".",".",".",".",".",".",".",6,".",".",".",6,".",".",".",6,".",".",".",6,".","."],[9,".",".",".",9,".",".",".",9,".",".",".",".",".",".",".",".",".",7,".",".",".",7,".",".",".",7,".",".",".",7,".",".","."],[".",".",".",".",".",".",".",".",".",".",".",".",".",".",".",".",".",".",".",".",".",".",".",".",".",".",".",".",".",".",".",".",".","."],[".",".",".",".",".",".",".",".",".",".",".",".",".",".",".",".",".",".",".",".",".",".",".",".",".",".",".",".",".",".",".",".",".","."]],[[".",".",".",".",".",".",".",".",".",".",".",".",".",".",".",".",".",".",".",".",".",".",".",".",".",".",".",".",".",".",".",".",".","."],[".",".",9,7,".",".",9,7,".",".",9,7,".",".",9,7,".",".",7,5,".",".",7,5,".",".",7,5,7,7,"/",9,7,5],[".",7,".",".",".",7,".",".",".",7,".",".",".",7,".",".",".",6,".",".",".",6,".",".",".",6,".",".",".",".",".",".",".","."],[9,".",".",".",9,".",".",".",9,".",".",".",9,".",".",".",7,".",".",".",7,".",".",".",7,".",".",".",".",".",".",".",".","."],[".",".",".",".",".",".",".",".",".",".",".",".",".",".",".",".",".",".",".",".",".",".",".",".",".",".",".",".",".",".",".",".",".","."],[".",".",".",".",".",".",".",".",".",".",".",".",".",".",".",".",".",".",".",".",".",".",".",".",".",".",".",".",".",".",".",".",".","."]],[[".",".",".",".",".",".",".","_","_",".",".",".",".",".","_",".",".",".",".",".","_",".",".",".",".","_"],[7,".",7,7,7,7,7,"_","_",7,7,7,7,10,"_",10,10,10,10,9,"_",9,9,9,9,"_"],[7,".",7,7,7,7,7,"_","_",7,7,7,7,7,"_",7,7,7,7,7,"_",7,7,7,7,"_"],[9,".",9,9,9,9,9,"_","_",9,9,9,9,9,"_",9,9,9,9,9,"_",9,9,9,9,"_"],[".",".",".",".",".",".",".","_","_",".",".",".",".",".","_",".",".",".",".",".","_",".",".",".",".","_"],[".",".",".",".",".",".",".","_","_",".",".",".",".",".","_",".",".",".",".",".","_",".",".",".",".","_"]],[[".","_",".",".",".",".",".","_",".",".",".",".",".","_",".",".",".",".",".","_",".",".",".","."],[5,"_",5,5,5,5,5,"_",5,5,5,5,7,"_",7,7,7,7,5,"_",5,5,5,5],[6,"_",6,6,6,6,6,"_",6,6,6,6,6,"_",6,6,6,6,6,"_",6,6,6,6],[7,"_",7,7,7,7,7,"_",7,7,7,7,7,"_",7,7,7,7,7,"_",7,7,7,7],[".","_",".",".",".",".",".","_",".",".",".",".",".","_",".",".",".",".",".","_",".",".",".","."],[".","_",".",".",".",".",".","_",".",".",".",".",".","_",".",".",".",".",".","_",".",".",".","."]],[[".","_",".",".",".",".",".","_",".",".",".",".",".","_",".",".",".",".",".","_",".",".",".","."],[7,"_",7,7,7,7,7,"_",7,7,7,7,10,"_",10,10,10,10,9,"_",9,9,9,9],[7,"_",7,7,7,7,7,"_",7,7,7,7,7,"_",7,7,7,7,7,"_",7,7,7,7],[9,"_",9,9,9,9,9,"_",9,9,9,9,9,"_",9,9,9,9,9,"_",9,9,9,9],[".","_",".",".",".",".",".","_",".",".",".",".",".","_",".",".",".",".",".","_",".",".",".","."],[".","_",".",".",".",".",".","_",".",".",".",".",".","_",".",".",".",".",".","_",".",".",".","."]],[[".","_",".",".",".",".",".","_",".",".",".",".",".","_",".",".",".",".",".","_",".",".",".","."],[5,"_",5,5,5,5,5,"_",5,5,5,5,9,"_",9,9,9,9,7,"_",7,7,7,7],[6,"_",6,6,6,6,6,"_",6,6,6,6,6,"_",6,6,6,6,6,"_",6,6,6,6],[7,"_",7,7,7,7,7,"_",7,7,7,7,7,"_",7,7,7,7,7,"_",7,7,7,7],[".","_",".",".",".",".",".","_",".",".",".",".",".","_",".",".",".",".",".","_",".",".",".","."],[".","_",".",".",".",".",".","_",".",".",".",".",".","_",".",".",".",".",".","_",".",".",".","."]]],"numberofstrings":6,"notes":["E","B","G","D","A","E","B"],"capo":0,"stringnotes":["E4","B3","G3","D3","A2","E2"],"comments":["Stave 1:","Stave 2:","Stave 3:","Stave 4:","Stave 5:","Stave 6:","Stave 7:"],"timing":[["W","W","W","W","W","W","W","W","W","W","W","W","W","W","W","W","W","W","W","W","W","W","W","W","W","W","W","W","W","W","W","W",null,null,"W"],["W","W","W","W","W","W","W","W","W","W","W","W","W","W",null,"W","W","W","W","W","W","W","W","W","W","W","W","W","W","W","W","W","W","W"],["W","W","W","W","W","W","W","W","W","W","W","W","W","W","W","W","W","W","W","W","W","W","W","W","W","W","W","W","W","W",null,"W","W","W"],["W","W","W","W","W","W","W",null,"W","W","W","W","W",null,"W","W","W","W","W",null,"W","W","W","W","W",null,"W","W","W","W"],["W",null,"W","W","W","W","W",null,"W","W","W","W","W",null,"W","W","W","W","W",null,"W","W","W","W"],["W",null,"W","W","W","W","W",null,"W","W","W","W","W",null,"W","W","W","W","W",null,"W","W","W","W"],["W",null,"W","W","W","W","W",null,"W","W","W","W","W",null,"W","W","W","W","W",null,"W","W","W","W"]],"timingvisible":false,"tabcounter":23,"stave":6,"totalstaves":7,"instrument":"6guitar","selectedtuning":"6_standard","version":"13"}

Member for

1 month 2 weeks
Submitted by buddynuggets on Fri, 2020-12-04 18:56